gebe
  1. MaWiM

    MaWiM ♥Ben Aşık Olduğum Adamın Aşık Olduğu Kadınım♥ Yetkili Kişi

    Kayıt:
    25 Temmuz 2007
    Mesajlar:
    34.167
    Beğenilen Mesajlar:
    2.218
    Ödül Puanları:
    113

    DumaN - Manası Yok (akor)

    Konu, 'Akor-Tab-Nota' kısmında MaWiM tarafından paylaşıldı.

    Bm E Bm E e|----------------------------------------| B|-7p8-7-5-7---3p5-3-2-0---7p8-7-5-7-3'5b-|
    G|----------------------------------------|
    D|----------------------------------------|
    A|----------------------------------------|
    E|----------------------------------------|

    Bm E C9 A
    e|----------------------------------------|
    B|-7p8-7-5-7---3p5-3-2-0---3p5-3-2-2-0-2b-|
    G|----------------------------------------|
    D|----------------------------------------|
    A|----------------------------------------|
    E|----------------------------------------|


    intro solo 2 : 01:40
    Bm E Bm E
    e|----------------------------------------|
    B|-7p8-7-5-7---3p5-3-2-0---7p8-7-5-7-3'5b-|
    G|----------------------------------------|
    D|----------------------------------------|
    A|----------------------------------------|
    E|----------------------------------------|

    Bm E C9 A
    e|----------------------------------------------|
    B|--7p8-7-5-7---10p7-7p9h7-5-7---3p5-3-2-2-0-2b-|
    G|----------------------------------------------|
    D|----------------------------------------------|
    A|----------------------------------------------|
    E|----------------------------------------------|

    solo : 03:06
    e|------------------------|------------------------|
    B|-7----------------------|-7----------------------|
    G|--7b--6-----------------|--7b--6------------6-7b-|
    D|-------7b--7'9b-7-6-----|-------7b-7b-7'9-7b-----|
    A|--------------------9-7-|------------------------|
    E|------------------------|------------------------|

    e|------------------------|-----------------------|
    B|-7----------------------|-7---------------------|
    G|--7b--6-----------------|--7b--6----------------|
    D|-------7b--7'9b-7-6-----|-------7b-7'9b-9b.b.b.-|
    A|--------------------9-7-|-----------------------|
    E|------------------------|-----------------------|


     
DumaN - Manası Yok (akor) konusuna benzer diğer içeriklerimiz
  1. DumaN - YaNıbaşımdaN (akor)

    DumaN - YaNıbaşımdaN (akor)

    duman yanıbaşımdan akor duman yanıbaşımdan tab akor --------------------------------------------------------------------------- Her sözde burası çalınıyo --------------------------------------------------------------------------- şarkıyı dinlerseniz anlarsınız... ---------------------------------------------------------------0-----------...
  2. DumaN - ÖzgürLüğün ÜLkesi (akor)

    DumaN - ÖzgürLüğün ÜLkesi (akor)

    özgürlüğün ülkesi akor duman özgürlüğün ülkesi akor Giriş G| 4-4-4 -5-5-5 -6 D| 4-4-4 5-5-5 5-5-5 6-6-6 6 7 A| 2-2-2 5-5-5 3-3-3 6-6-6 4 7 E| -3-3-3 -4-4-4 -5 Devamı G| 7-7-7 -8-8-8 -9 10 D| 7-7-7 8-8-8 8-8-8 9-9-9 9 10 A| 5-5-5 8-8-8 6-6-6 9-9-9 7 8 E| -6-6-6 -7-7-7 Solo G| | D| 11-11-11-11-11 | A| -7-8 11-11-11-11-11 | E| 9-10 -9-10 -9 9 9 9 9 -| 4 Defa çalınacak
  3. DumaN - Oje (akor)

    DumaN - Oje (akor)

    duman oje akor am f e gidiyorum gözüm arkada ) am f e ) kaçamadık burdan başbaşa x2 am f e am ) hangi oje yakışmaz ki kız sana ) e am ver elini bana am f e gel yanıma gir koynumaa ) x2 am f e doyamadım dönüp bakmaya am f e nede güzel durmuş yanyana am f e am hangi oje yakışmaz ki kız sana e am ver ayağı bana am f e am f e am gel çök oynaşmaa kaykıl son defaa am f e gel yanıma gir...
  4. DumaN - MasaL (akor)

    DumaN - MasaL (akor)

    A D A Biri basmış seksene ötekisi doksan beş G A G A D Aga böyle olmaz ki koca dünya harcanmaz ki of ooof D A D A Biri arap tayfası ötekisi gavur mandası G A G A D Aga böyle olmaz ki koca millet aldanmaz ki of oof G A C Biri sağdan biri soldan asılınca G A C Biri asıya biri kasaya karışınca D A G D Evvel zaman içinde masal olduk masal olduk yine}3 D A G A D Evvel zaman içinde masal...
  5. DumaN - İstanbuL (akor)

    DumaN - İstanbuL (akor)

    duman istanbul akor duman sarhoş tab istanbul tab guitar pro gp5 G#5 F#5 G#5 F#5 D-----666-4444-666-------4444--------666-4444-6---------66-4444-- A-----666-4444-666-------4444--------666-4444-6---------66-4444-- E-----444-2222-444-------2222--------444-2222-4---------44-2222-- Bu şehir rakıyla yaşar Bu şehir cigarayı çeker Bu şehir gündüzü yaşar Bu şehir geceyi se_ver Bu şehir adamı sö__ver...

Sayfayı Paylaş