gebe
  1. kaprisli

    kaprisli Yeni Üye Üye

    Kayıt:
    13 Kasım 2008
    Mesajlar:
    4.648
    Beğenilen Mesajlar:
    19
    Ödül Puanları:
    0

    Gökhan Türkmen - Büyük İnsan - AKOR (versiyon 4)

    Konu, 'Akor-Tab-Nota' kısmında kaprisli tarafından paylaşıldı.

    büyük insan notaları İNTRO (D#m-G#m-D#m-G#m-B-F#-G#m-D#m) E-------------------------- // -------------------------- //
    B-------------------------- // -------------------------- //
    G-------------------------- // -------------------------- //
    D---8---6-8-6h8h6---6------ // ---8---6-8-6h8h6---6------ //
    A-6---9-----------9---9-7-6 // -6---9-----------9---9-7-6 //
    E-------------------------- // -------------------------- //

    E-------------------------- // -------------------------- //
    B-------------------------- // -------------------------- //
    G--8----6-8-6----6--------- // -------------------------- //
    D----9---------9---9-8-6--- // -9-8-9-8h9h8-6---6-------- //
    A-6------------------------ // ---------------9---9-7-9-6 //
    E-------------------------- // -------------------------- //

    G#m D#m G#m
    At savur at sevdayı bir yere fırlat
    D#m G#m
    Bitti sayıp acıyı kaldır öyle at...
    G#m D#m G#m
    Sor herkese sor acılar unutuluyor
    D#m G#m
    Ağlayınca gözlerinden silinmiyor
    D#m G#m
    Aşk her defasında bak bulunuyor
    D#m B
    Bırakırım zamanı öyle biraz da
    F# B
    Sen olmadan da yine geçer nasılsa
    F# C#m
    Hatırla bunları sakın unutma
    C#m
    Diyordun ama o zaman gülüyordun
    C#m F# D#m
    Yanımdaydın canımdaydın şimdi nasıl geçer bu ömür...


    D#m G#m D#m
    Susma söyle nasıl yaşar böyle insan
    G#m
    Susma konuş hadi anlat büyük insan
    B F#
    Söyle bir aşk mı çare olurdu zaman mı
    G#m D#m
    Böyle kaldırıp atardık ya sevdayı
    G#m D#m
    Susma söyle nasıl yapar bunu insan
    G#m
    Susma nasıldı anlat hadi ayrılırsam
    B F#
    Söyle hayat mı çare bulurdu kendin mi
    G#m D#m
    Böyle büyük aşklar böyle mi biterdi


    E-------------------------- // -------------------------- //
    B-------------------------- // -------------------------- //
    G-------------------------- // -------------------------- //
    D---8---6-8-6h8h6---6------ // ---8---6-8-6h8h6---6------ //
    A-6---9-----------9---9-7-6 // -6---9-----------9---9-7-6 //
    E-------------------------- // -------------------------- //

    E-------------------------- // -------------------------- //
    B-------------------------- // -------------------------- //
    G--8----6-8-6----6--------- // -------------------------- //
    D----9---------9---9-8-6--- // -9-8-9-8h9h8-6---6-------- //
    A-6------------------------ // ---------------9---9-7-9-6 //
    E-------------------------- // -------------------------- //

    G#m D#m G#m
    At silip at aşkları bir yere fırlat
    D#m G#m
    Bitti say ki derdini kaldır öyle at...
    G#m D#m G#m
    Sor ne olur sen benden ayrılırsan
    D#m G#m
    Ne olur düşümde bir ömrü durdursan
    D#m G#m
    Aşk her defasında bende ararsan
    D#m B
    Bırakırım kendimi öyle biraz da
    F# B
    Sen olmadan da ben yaşarım nasılsa
    F# C#m
    Hatırla bunları sakın unutma
    C#m
    Diyordun ama o zaman gülüyordun
    F# D#m
    Yanımdaydın canımdaydın şimdi nasıl geçer bu ömür


    D#m G#m D#m
    Susma söyle nasıl yaşar böyle insan
    G#m
    Susma konuş hadi anlat büyük insan
    B F#
    Söyle bir aşk mı çare olurdu zaman mı
    G#m D#m
    Böyle kaldırıp atardık ya sevdayı
    D#m G#m D#m
    Susma söyle nasıl yapar bunu insan
    G#m
    Susma nasıl anlat hadi ayrılırsam
    B F#
    Söyle hayat mı çare bulurdu kendin mi
    G#m D#m
    Böyle büyük aşklar böyle mi biterdi


    E-------------------------- // -------------------------- //
    B-------------------------- // -------------------------- //
    G-------------------------- // -------------------------- //
    D---8---6-8-6h8h6---6------ // ---8---6-8-6h8h6---6------ //
    A-6---9-----------9---9-7-6 // -6---9-----------9---9-7-6 //
    E-------------------------- // -------------------------- //

    E-------------------------- // -------------------------- //
    B-------------------------- // -------------------------- //
    G--8----6-8-6----6--------- // -------------------------- //
    D----9---------9---9-8-6--- // -9-8-9-8h9h8-6---6-------- //
    A-6------------------------ // ---------------9---9-7-9-6 //
    E-------------------------- // -------------------------- //


    D#m G#m D#m
    Susma hani aşk insanı zaten bulurdu
    D#m G#m
    Susma hani yıllar aşka çare bulurdu
    B F#
    Söyle yıllar mı daha hızlı bir kurşun mu
    G#m D#m
    Böyle sensiz her gün biraz yok olsun mu


     
Gökhan Türkmen - Büyük İnsan - AKOR (versiyon 4) konusuna benzer diğer içeriklerimiz
  1. Gökhan Türkmen - Sevdam

    Gökhan Türkmen - Sevdam

    Bak, bak şu dünyaya insanlara Neden, neden diye sorma, öyle bakma Sarıl bana Neden giden dönmüyor sen de vurma Neden giden dönmüyor sen de vurma Darılma.. Bu acılar vursada Bitmez hüzünler acıtsada Bu acılar vursada Bitmez hüzünler acıtsada Sar beni başkasına yasakla Al beni sevdam kucakla Bir daha gelsem şu dünyaya Yine seni severdim bu aşkla
  2. Gökhan Türkmen - Öldürme

    Gökhan Türkmen - Öldürme

    ÖLDÜRME Gözlerini kapat benim yerime , Düşün geçmişi birde Sende , Bu kalanlar için sızlatırmı ? Yaban eller bize yar mı ? Şimdi bıraktığın yerdeyim .. Sensiz uzun gecelerdeyim .. Gözlerim görmez oldu .. Artık hayat yalan oldu ... Gel beni bırakma ellerde .. Sebepsiz saatsiz gecelerde .. Her ömür gençliğinden vurulur .. ÖLDÜRME beni bu yerlerde ... Yandım kül oldum hasretinle , Dağıldı...
  3. Gökhan Türkmen - Efkarlıyım

    Gökhan Türkmen - Efkarlıyım

    Efkarılıyım bu akşam bir hasretle savaşan Dertler sardı bu akşam sanki içtikçe artan Bir ben gülemiyorum neden bilemiyorum herşey bomboş yalan Bir sen çekip gittin bilsem severmiydim dostum oldu hüsran Ah yaşamıyorum çıkamam bu karanlıktan Ah deliriyorum ki sebebi yok anlarım aşktan İster hüzünlen agla ister sen de iç böyle Düşmeden anlamazsın yalnızsan sen de söyle
  4. Gökhan Türkmen - Bahar Gözlum

    Gökhan Türkmen - Bahar Gözlum

    yazın açan güller bilir Hasret çeken şu gönlümü Sensiz geçen günler bilir Ne acılar çektiğimi Gözlerin bir yeşil bahçe Sensiz olmak bir işkence Dayanamam sen gidince Ölürüm ben bahar gözlüm Gökte uçan kuşlar gibi, Esip giden rüzgar gibi, Buzul Dagından çığ gibi, Sana geldim bahar gözlüm Sana yandım bir dal gibi, Sana soldum bir gül gibi, Sana geldim bir yol gibi, Seninleyim bahar gözlüm...
  5. Gökhan Türkmen /Dayanamam

    Gökhan Türkmen /Dayanamam

    Gökhan Türkmen Hangi gün hangi dün aramadımki Sevmeye seni böyle doyamadımki Bir masal gibi geçti gitti gözlerin Gitti yalan oldu sitem doldu sözlerim Bir mucize gerek derken şu hayatıma Gözlerinle açtım gönlümü sabahlara Gönül sözüm ruhum özüm canım kanım yar Hem gecem hemde gündüzüm aşım yaşım yar Biran olsun senden uzak viran olsun hayat mayat Neye yarar sensiz hayat Ben dayanamam Canım...

Sayfayı Paylaş