gebe
  1. kaprisli

    kaprisli Yeni Üye Üye

    Kayıt:
    13 Kasım 2008
    Mesajlar:
    4.648
    Beğenilen Mesajlar:
    19
    Ödül Puanları:
    0

    Grup 84 - Rol Yapma - TAB (versiyon 1)

    Konu, 'Akor-Tab-Nota' kısmında kaprisli tarafından paylaşıldı.

    b—10s-11s-10s----4/6–86868----------------------------------
    g--------------------------9-7---------7/9-10910910-7-------
    d------------------------------10-8-7-----------------7-8-7-
    a-----------------------------------------------------------
    E------------------------------------------------------------

    b------------------------------------------------------------
    g—9s-7-9s-7-----10-9-7-9-------------------------------------
    d------------10----------8----7-8-----7-8-7---------------------
    a------------------------------------------------------------
    E------------------------------------------------------------


    b—--4/6–86868-------------------------------------------------
    g-------------9-7-----------7/9-10910910-7--------------------
    d------------------10-8-7----------------------7-8-7----------
    a-------------------------------------------------------------
    E-------------------------------------------------------------


    b------------------------------------------------------------
    g—9s-7-9s-7-----10-9-7-9---7s---6s---5s----------------------
    d------------10----------------------------------------------
    a------------------------------------------------------------
    E------------------------------------------------------------




     
Grup 84 - Rol Yapma - TAB (versiyon 1) konusuna benzer diğer içeriklerimiz
  1. Grup 84 - Dört Duvar - AKOR (versiyon 1)

    Grup 84 - Dört Duvar - AKOR (versiyon 1)

    dört duvar tab dört duvar akor 4 akor A /D /A / D…………………… Dararararararararam dararararararararamm dararara ra rarararam A C#m Ne olur durma git ne olur korkma git D Bm E ne verdin ki bu güne kadar bana acıdan başka A C#m Ne olur bakma...
  2. Grup 84 - Masum Değiliz - AKOR (versiyon 1)

    Grup 84 - Masum Değiliz - AKOR (versiyon 1)

    masum değiliz akor masum değiliz tab masun grup 84 akor Am Kan ter içinde uykularindan Dm Uyaniyorsan eger her gece Yalnizlik sevgili gibi Am Boylu boyunca uzaniyorsa koynuna Dm Olur olmaz yere islaniyorsa kirpiklerin artik herseye...
  3. Grup 84 - Kara Gözlüm - AKOR (versiyon 1)

    Grup 84 - Kara Gözlüm - AKOR (versiyon 1)

    grup 84 kara gözlüm akor AaaAAaAAAAaa (intro) e|------------------------------| B|------1----1-----1-----0------| G|-----2----2-----2-----2--2----| D|----2----2-----0-----0----0---| A|---0--------------------------| E|-------3-----2-----1----------| Kara Göözlüm Beni Niye Terkettin e|--------------------------------------| B|--------1---------------------0-------|...
  4. Grup 84 - Miyim - AKOR (versiyon 1)

    Grup 84 - Miyim - AKOR (versiyon 1)

    Intro Dm Am Dm Am ) 2 kez Am Em Am Em ) 2 kez Dm Am G Am Yapabilirmiyim unutabilirmiyim Dm Am G Am Hiç bir şey yok gibi davranabilir miyim Dm Am G Am Kaçabilir miyim kurturabilir miyim Dm Am G Am Gözümün o sahne sıyrılabilir miyim -Nakarat- G F G Kimin için bu hale düştüm Am G...
  5. Grup 84 - Sabah Olsun - AKOR (versiyon 1)

    Grup 84 - Sabah Olsun - AKOR (versiyon 1)

    Am F Am Saygısız yürütemezdik başaramazdık F Am Biz bu aşka köle olduk F Am Söylenenler unutulmaz yenilip yutulmaz F Am yanamadan kül olduk F sevdiğim herkes ayrıl diyor Am kimse onu bilmiyor F Am içimde sönmeyen ışık o F korktuğım her...

Sayfayı Paylaş