gebe
  1. kaprisli

    kaprisli Yeni Üye Üye

    Kayıt:
    13 Kasım 2008
    Mesajlar:
    4.648
    Beğenilen Mesajlar:
    19
    Ödül Puanları:
    0

    Nev - Benmişim - TAB

    Konu, 'Akor-Tab-Nota' kısmında kaprisli tarafından paylaşıldı.

    İntro: E/------------------------------------------------------------ B/-----5-------5--------------------5-------5-----------------
    G/-0-2---2-0-2---2---5-4-2-0----0-2---2-0-2---2--5-4-2-0------
    D/------------------------------------------------------------
    A/------------------------------------------------------------
    E/------------------------------------------------------------


    Solo:
    E/------------------------------------------------------------
    B/-----5-------5--------------------5-------5-----------------
    G/-0-2---2-0-2---2---5-4-2-0----0-2---2-0-2---2--5-4-2-0------
    D/------------------------------------------------------------
    A/------------------------------------------------------------
    E/------------------------------------------------------------


    E/------------------------------------------------------------
    B/-8h10h8h-5h6h5h---------------------------------------------
    G/---------------7-5-4-5h6h5h-4-------------------------------
    D/-----------------------------7-5----------------------------
    A/--------------------------------7-6-5-3-2---------------3---
    E/-----------------------------------------5-3--3-5-3-5-3---5-


    E/-----8-------8-------8----------------------8-10h12h10h-----
    B/-5-6---6-5-6---6-5-6---6-5----5-6-5-8-5-6-5-----------------
    G/------------------------------------------------------------
    D/------------------------------------------------------------
    A/------------------------------------------------------------
    E/------------------------------------------------------------

    AAAAAAAAAAaaaaaaaAAAAAAaaaaa...

    E/------------------------------------------------------------
    B/------------------------------------------------------------
    G/--9h10h9h-7-9-5-7-5---7-5-----------------------------------
    D/-------------------------7-5--------------------------------
    A/----------------------------7-6-5-3---3-5-3-5---------------
    E/------------------------------------------------------------


    E/------------------------------------------------------------
    B/------------------------------------------------------------
    G/-4-5-4------------------------------------------------------
    D/------7-5---------------------------------------------------
    A/---------7-6-5-3-2------------------------------------------
    B/------------------5-3-5-3-----------------------------------

     
  2. teodor

    teodor Forum Okuru

    harika üstad emeğine sağlık
     
Nev - Benmişim - TAB konusuna benzer diğer içeriklerimiz
  1. nev-kelebek

    nev-kelebek

    Sen boşver onları uç gönlünce Onların hiç kanatları olmadı ki... Kelebek...Ooo...Kelebek...Ooo... Açar mı kanatların bir gün yine? Kelebek kaç gün var geriye? Kısacık ömür yeter mi onca hayale? Gücenme dünya hali böyle.. Sen boşver onları uç gönlünce Onların hiç kanatları olmadı ki... Sen boşver onları uç kendin gibi kelebek gibi... Onların ruhu böyle rengarenk değil saf ve tertemiz...
  2. nev -efkarlıyım

    nev -efkarlıyım

    Efkarlıyım basım duman Sıtemım var ey koca cınar Zor gunumde nıcesını andım Muhabbet yetmezmıs bılmedım Dun bugun dedım gonlum avuttum Yarın yetmezmıs bılmedım Dert bır yandan Sevda bır yandan Derman yetmezmıs bılmedım Sıtem ne care Su dunyanın halıne kandım Ben yalnızmışım bılmedım Gonul ıcın ıcın yanar da Sabır yetmezmıs bılmedım Sıtem ne care Efkarlıyım basım duman Sıtemım var ey koca...
  3. Nev - Bazen

    Nev - Bazen

    Hatırlıyor musun kim olduğunu Hala hissedebiliyor musun Ne zamandır farkında mısın yokluğunun Arasan bulur musun kaybolduğun yerleri Gündüzün geçtiğini farketmedin bile Anılar sinemasından bir bilet almışsın bu gece Ömrün küsmek ve pişmanlıkla geçip gidiyor Bak hala aynı soruyu soruyorsun kendine Bazen kendi gölgene basar sendelersin ıssız sokaklarda Bir karayel eser üşütür yalnızlığını...
  4. Nev

    Nev

    Merhabalar degerli misafirimiz, sitemizde toplu bir temizlik yapmak zorunda kaldik. Su anda gormek istediginiz konuyu maalesef sizlere sunamiyoruz. ilgili sayfamizin google siralamalarindan dusmesi icin gerekli algoritmik degerleri sitemize verdik. Verdigimiz rahatsizlik icin sizlerden ozur dileriz. Dilerseniz yukaridan sitemizin logosuna tiklayarak anasayfamiza gidebilir, Ya da ust sag...

Sayfayı Paylaş