gebe
  1. kaprisli

    kaprisli Yeni Üye Üye

    Kayıt:
    13 Kasım 2008
    Mesajlar:
    4.648
    Beğenilen Mesajlar:
    19
    Ödül Puanları:
    0

    Nev - Susma - TAB

    Konu, 'Akor-Tab-Nota' kısmında kaprisli tarafından paylaşıldı.

    susma tab nev tab nev susma solo e|--------------------------------------------| B|-------4------------4--------4-------------|
    G|---4-6----6-4---4-6---6--4-6---6--4-6------|
    D|--------------------------------------------|
    A|--------------------------------------------|
    E|--------------------------------------------|





    e|--------------------------------------------|
    B|------2-----------4--------4----------------|
    G|--3-4---4-3---4-6---6--4-6---6--4-6---------|
    D|--------------------------------------------|
    A|--------------------------------------------|
    E|--------------------------------------------|




    outro
    e|----------------------------------------------|
    B|--------9--------------9----------9-----------|
    G|--9--11----11-9---9-11---11--9-11---11--9-11--|
    D|----------------------------------------------|
    A|----------------------------------------------|
    E|----------------------------------------------|




    e|--------------------------------------------|
    B|--------------------9----------9------------|
    G|--8-9-11-9-8---9-11---11--9-11---11--9-11---|
    D|--------------------------------------------|
    A|--------------------------------------------|
    E|--------------------------------------------|

     
Nev - Susma - TAB konusuna benzer diğer içeriklerimiz
  1. nev-kelebek

    nev-kelebek

    Sen boşver onları uç gönlünce Onların hiç kanatları olmadı ki... Kelebek...Ooo...Kelebek...Ooo... Açar mı kanatların bir gün yine? Kelebek kaç gün var geriye? Kısacık ömür yeter mi onca hayale? Gücenme dünya hali böyle.. Sen boşver onları uç gönlünce Onların hiç kanatları olmadı ki... Sen boşver onları uç kendin gibi kelebek gibi... Onların ruhu böyle rengarenk değil saf ve tertemiz...
  2. nev -efkarlıyım

    nev -efkarlıyım

    Efkarlıyım basım duman Sıtemım var ey koca cınar Zor gunumde nıcesını andım Muhabbet yetmezmıs bılmedım Dun bugun dedım gonlum avuttum Yarın yetmezmıs bılmedım Dert bır yandan Sevda bır yandan Derman yetmezmıs bılmedım Sıtem ne care Su dunyanın halıne kandım Ben yalnızmışım bılmedım Gonul ıcın ıcın yanar da Sabır yetmezmıs bılmedım Sıtem ne care Efkarlıyım basım duman Sıtemım var ey koca...
  3. nev- benmişim

    nev- benmişim

    İçimde kaleler inşaa ettim kırılmamak adına Harcına gözyaşı döktüm daha da sağlam olsun diye Şimdi yarattığım zindanlarda ışıksızım Kaçtım kendime saklandım her küstüğümde Vazgeçtim aynalardan vakitsiz uykularda İnsan kendine rağmen yaşamayı bilmeli bazen Benmişim kendimden bir korkak yaratmışım Kendimi korurken en çok ben ürkütmüşüm Benmişim kendini savunurken en çok hançerleyen Bir...
  4. Nev

    Nev

    Merhabalar degerli misafirimiz, sitemizde toplu bir temizlik yapmak zorunda kaldik. Su anda gormek istediginiz konuyu maalesef sizlere sunamiyoruz. ilgili sayfamizin google siralamalarindan dusmesi icin gerekli algoritmik degerleri sitemize verdik. Verdigimiz rahatsizlik icin sizlerden ozur dileriz. Dilerseniz yukaridan sitemizin logosuna tiklayarak anasayfamiza gidebilir, Ya da ust sag...

Sayfayı Paylaş