gebe
  1. MaWiM

    MaWiM ♥Ben Aşık Olduğum Adamın Aşık Olduğu Kadınım♥ Yetkili Kişi

    Kayıt:
    25 Temmuz 2007
    Mesajlar:
    34.164
    Beğenilen Mesajlar:
    2.213
    Ödül Puanları:
    113

    ŞebNem Ferah - Artık Kısa CümLeLer Kuruyorum (akor)

    Konu, 'Akor-Tab-Nota' kısmında MaWiM tarafından paylaşıldı.

    eb-----------0-------0-------0-------0----------| Bb---------6--6-----6-6-----0-0-----0-0---------| Gb--------7----7---7---7---6---6---6---6--------| 6 kez
    Db-------7------7-7-----7-7-----7-7-----7-------| 1.bölüm
    Ab------0--------0-------0-------0-------0------|
    Eb----------------------------------------------|


    Son günlerde derken...

    eb-------------------------0-------0------------|
    Bb-------2-------2--------0-0-----0-0-----------|
    Gb------2-2-----2-2------6---6---6---6----------|
    Db-----4---4---4---4----7-----7-7-----7---------|
    Ab----4-----4-4-----4--0-------0-------0--------|
    Eb---2-------2----------------------------------|
    2.bölüm
    eb------------------------0---------------------|
    Bb-------2-------2-------0-0--------0-----------|
    Gb------2-2-----2-2-----6---6------1-1----------|
    Db-----4---4---4---4---7-----7----2---2---------|
    Ab----4-----4-4-----4-0-------0--2-----2--------|
    Eb---2-------2-------2----------0-------0-------|

    Ritim bölümü

    eb---0---------0-------|
    Bb---6---------0-------| Ritim kısmı kolay,siz 3.bölüm
    Gb---7---------6-------| bulabilirsiniz.
    Db---7---------7-------|
    Ab---0---------0-------|
    Eb---------------------|

    Baştan tekrar...

    İkinci ritim bölümünde

    eb--0------0----- --0------------ --0-------|
    Bb--6--------6--- --6------------ --0-------|
    Gb--7----7------- --7------------ --6-------|
    Db--7------------ --7------------ --7-------|
    Ab--0------------ --0------------ --0-------|
    Eb--------------- --------------- ----------|

    "teşekkürler"derken "büyüyorum" "sizinle"

    Ve son akorla bitiriyorsunuz!!!


     
ŞebNem Ferah - Artık Kısa CümLeLer Kuruyorum (akor) konusuna benzer diğer içeriklerimiz
  1. Şebnem Ferah - Sigara-Akor

    Şebnem Ferah - Sigara-Akor

    şebnem ferah sigara notaları şebnem ferah sigara akor akor nota flüt notaları Dm Csus4 ) Aslında ben de isterim emeklemeden koşmayı ) Dm Csus4 ) Güzel elbiselerle makyaj yapıp dolaşmayı ) Dm Csus4 ) x Aslında ben de isterim düşünmeden konuşmayı ) Dm Csus4 ) Küçük bir oyun içinde önemli kişi olmayı ) Csus4 Dm Csus4 Dm Aklımdan geçen sözler kalbimden gelen sesler Csus4 Dm Csus4 Dm...
  2. Şebnem Ferah - Can KırıkLarı (akor)

    Şebnem Ferah - Can KırıkLarı (akor)

    intro (Guitar x) clean... E------------------------------------------------------------------5-- B----5/6--8-0--6-6/5-----6--5--------5/6--8--1-----6-6/5-----------5-- G----------------------7---------7-------------------------7-5-----5-- D-7---------------------------7--0------------------------------7----- A-0---------------------------0---------------------------------0-----...
  3. Şebnem Ferah - ßırak Kadının Olayım (akor)

    Şebnem Ferah - ßırak Kadının Olayım (akor)

    Em D Bu şarkı bir haykırış C D Bir öpücük, sıcak bir kış Em D Bir demet gül C Bir dokunuş Em D Bu şarkı bir yalvarış C D Bitmesin sürsün bu düş Em D C Sende düşün sende konuş Em Nereye.. D C Gider bu aşk Em Nereye.. D C Dur gitme ikikere Em D C Bırak kadının olayım
  4. Şebnem Ferah - Aşk (akor)

    Şebnem Ferah - Aşk (akor)

    Am F Toprağın Altında Am F Sarmaş Dolaş Köklerle Am F Bağlanmışız Birbirimize Am F Cennet Gibi Bir Yerlerde E Am Kader Varsa Benimki Bu Olsun E F Aşk Masalsa Gerçek Olsun Aşk Am Bağlanmış Kökler Gibi F Hayat Veren Toprak Gibi Am F Tüm Anneler Gibi Güçlü Olsun Am Camdan Sızan Güneş Gibi F Gökte Yıldızlar Gibi Am F Dolu Hayatlar Gibi Sonsuz Olsun Am F Am F Sonsuz Olsun...
  5. Sil Baştan  Şebnem Ferah akor

    Sil Baştan Şebnem Ferah akor

    sil baştan notaları şebnem ferah akor sil baştan başlamak gerek bazen akor tab Sil Baştan Şebnem Ferah Em B7 Gucun var mi sevgilim, Am Em Derin sularda inci tanesi aramaya Em B7 Cesaretin kaldiysa Am Em Hala benle asktan konusmaya Em B7 Soyle canim sevgilim Am Em Hayat bize...

Sayfayı Paylaş