gebe
  1. MaWiM

    MaWiM ♥Ben Aşık Olduğum Adamın Aşık Olduğu Kadınım♥ Yetkili Kişi

    Kayıt:
    25 Temmuz 2007
    Mesajlar:
    34.184
    Beğenilen Mesajlar:
    2.224
    Ödül Puanları:
    113

    Şebnem Ferah - Can KırıkLarı (akor)

    Konu, 'Akor-Tab-Nota' kısmında MaWiM tarafından paylaşıldı.

    intro (Guitar x) clean... E------------------------------------------------------------------5-- B----5/6--8-0--6-6/5-----6--5--------5/6--8--1-----6-6/5-----------5--
    G----------------------7---------7-------------------------7-5-----5--
    D-7---------------------------7--0------------------------------7-----
    A-0---------------------------0---------------------------------0-----
    E---------------------------------------------------------------------


    Bu kalabalığın içinde
    Yapayalnız hissetmektense
    Dünyanın bir ucunda tek başımayım

    Kir göstermeyen renkeleriniz
    Sizin olsun korkmaktansa
    Bulanıklığın tam içinde bir başımayım

    E----------------------------------------------------------------------
    B----------------------------------------------------------------------
    G----------------------------------------------------------------------
    D-7-7-X-X-X-X--7-7-X-X-X-X--7-7-X-X--8-8-X-X-X-X--8-8-X-X-X-X--8--5--5-
    A-7-7-X-X-X-X--7-7-X-X-X-X--7-7-X-X--8-8-X-X-X-X--8-8-X-X-X-X--8--5--5-
    E-5-5-X-X-X-X--5-5-X-X-X-X--5-5-X-X--6-6-X-X-X-X--6-6-X-X-X-X--6--3--3-
    Benim belkide.....

    solo 1
    E----------------------------------------------------------------------
    B-15-15-15-15-15-15-15-15--15--15--------------------------------------
    G-14-14-14-14-14-14-14-14--14--14-15-15-15-15-15-15-15-15--15/17-17----
    D-12-12-12-12-12-12-12-12--12--12-15-15-15-15-15-15-15-15--15/17-17----
    A---------------------------------13-13-13-13-13-13-13-13--13/15-15----
    E----------------------------------------------------------------------

    -----------------------------------------------------------------------
    --15-15-15-15-15-15-15-15--15--15-------------------------13-----------
    --14-14-14-14-14-14-14-14--14--14----------------12-12-14---14---------
    --12-12-12-12-12-12-12-12--12--12--12/14-14/15-15----------------------
    -----------------------------------------------------------------------
    -----------------------------------------------------------------------

    -----------------------------------------------------------------------
    --13p15-13p15-13p15-13p15-13p15---15p17-15p17-15p17-15p17-15p17--------
    -----------------------------------------------------------------------
    -----------------------------------------------------------------------
    -----------------------------------------------------------------------
    -----------------------------------------------------------------------

    -----------------------------------------------------------------------
    --17/18-15----18-18/20--21p-21p-21p-21p-21p-21p------------------------
    -----------14----------------------------------------------------------
    -----------------------------------------------------------------------
    -----------------------------------------------------------------------
    -----------------------------------------------------------------------

    solo 2
    E-----------------------------------------
    B-15-15--15-15--15-15--15-15--15/17-17-17-
    G-14-14--14-14--14-14--14-14--14/14-14-14-
    D-12-12--12-12--12-12--12-12--12/14-14-14-
    A-----------------------------------------
    E-----------------------------------------

    ---------------------------------------
    --18-18--18-18--18-18--18-18--18-17-15-
    --15-15--15-15--15-15--15-15--------15-
    --15-15--15-15--15-15--15-15--15-14-12-
    --13-13--13-13--13-13--13-13--------13-
    ---------------------------------------

    -----------------------------------------------------------------------
    -15-15-15-15-15-15-15-15--15/18-18-------------------------------------
    -14-14-14-14-14-14-14-14--14/17-17---15-15/17-17/19-19-22--------------
    -12-12-12-12-12-12-12-12--12/15-15-------------------------------------
    -12-12-12-12-12-12-12-12--12/15-15-------------------------------------
    -----------------------------------------------------------------------



    X 3
    ---------------------------------
    ---------------------------------
    --7-7-7-7-7-7--------------------
    --7-7-7-7-7-7-8-8-8-8-8/10--10---
    --5-5-5-5-5-5-8-8-8-8-8/10--10---
    --------------6-6-6-6-6/8----8---
    Ooooo.....

    ----------------------------------------
    ------------------17p-17-17p-17-17p-17--
    --7-7-7-7-7/9-9-------------------------
    --7-7-7-7-7/9-9-------------------------
    --5-5-5-5-5/7-7-------------------------
    ----------------------------------------


     
Şebnem Ferah - Can KırıkLarı (akor) konusuna benzer diğer içeriklerimiz
  1. Şebnem Ferah - Sigara-Akor

    Şebnem Ferah - Sigara-Akor

    şebnem ferah sigara notaları şebnem ferah sigara akor akor nota flüt notaları Dm Csus4 ) Aslında ben de isterim emeklemeden koşmayı ) Dm Csus4 ) Güzel elbiselerle makyaj yapıp dolaşmayı ) Dm Csus4 ) x Aslında ben de isterim düşünmeden konuşmayı ) Dm Csus4 ) Küçük bir oyun içinde önemli kişi olmayı ) Csus4 Dm Csus4 Dm Aklımdan geçen sözler kalbimden gelen sesler Csus4 Dm Csus4 Dm...
  2. Şebnem Ferah - ßir Kalp Kırıldığında (akor)

    Şebnem Ferah - ßir Kalp Kırıldığında (akor)

    intro...X E------------------------------------------------------------------------- B------------------------------------------------------------------------- G----7/6-------6/4---------7/6----------6/4----4---4---6---4/6----6------- D----0-----7---7/5---------0-------7----7/5----5---5---7---5/7----7------- A-7--------0------------7----------0--------------------------------------...
  3. Şebnem Ferah - Aşk (akor)

    Şebnem Ferah - Aşk (akor)

    Am F Toprağın Altında Am F Sarmaş Dolaş Köklerle Am F Bağlanmışız Birbirimize Am F Cennet Gibi Bir Yerlerde E Am Kader Varsa Benimki Bu Olsun E F Aşk Masalsa Gerçek Olsun Aşk Am Bağlanmış Kökler Gibi F Hayat Veren Toprak Gibi Am F Tüm Anneler Gibi Güçlü Olsun Am Camdan Sızan Güneş Gibi F Gökte Yıldızlar Gibi Am F Dolu Hayatlar Gibi Sonsuz Olsun Am F Am F Sonsuz Olsun...
  4. ŞebNem Ferah - Artık Kısa CümLeLer Kuruyorum (akor)

    ŞebNem Ferah - Artık Kısa CümLeLer Kuruyorum (akor)

    eb-----------0-------0-------0-------0----------| Bb---------6--6-----6-6-----0-0-----0-0---------| Gb--------7----7---7---7---6---6---6---6--------| 6 kez Db-------7------7-7-----7-7-----7-7-----7-------| 1.bölüm Ab------0--------0-------0-------0-------0------| Eb----------------------------------------------| Son günlerde derken... eb-------------------------0-------0------------|...
  5. Sil Baştan  Şebnem Ferah akor

    Sil Baştan Şebnem Ferah akor

    sil baştan notaları şebnem ferah akor sil baştan başlamak gerek bazen akor tab Sil Baştan Şebnem Ferah Em B7 Gucun var mi sevgilim, Am Em Derin sularda inci tanesi aramaya Em B7 Cesaretin kaldiysa Am Em Hala benle asktan konusmaya Em B7 Soyle canim sevgilim Am Em Hayat bize...

Sayfayı Paylaş