gebe
  1. kaprisli

    kaprisli Yeni Üye Üye

    Kayıt:
    13 Kasım 2008
    Mesajlar:
    4.648
    Beğenilen Mesajlar:
    19
    Ödül Puanları:
    0

    Teoman - Güzel Bir Gün - TAB (versiyon 1)

    Konu, 'Akor-Tab-Nota' kısmında kaprisli tarafından paylaşıldı.

    E||---------------------------|--------------------------| B||---------------------------|--------------------------| G||*--------------------------|--------------------------|
    D||*--5--5--5--5--5--5--5--5--|--5--5--5--5--5--5--5--5--|
    A||---3--3--3--3--3--3--3--3--|--3--3--3--3--3--3--3--3--|
    E||---------------------------|--------------------------|



    --------------------------|--------------------------|
    --------------------------|--------------------------|
    --------------------------|--------------------------|
    --------------------------|--------------------------|
    --3--3--3--3--3--3--3--3--|--3--3--3--3--3--3--3--3--|
    --1--1--1--1--1--1--1--1--|--1--1--1--1--1--1--1--1--|



    --------------------------|--------------------------|
    --------------------------|--------------------------|
    --------------------------|--------------------------|
    --------------------------|--------------------------|
    --6--6--6--6--6--6--6--6--|--5--5--5--5--5--5--5--5--|
    --4--4--4--4--4--4--4--4--|--3--3--3--3--3--3--3--3--|



    --------------------------|---------------------------||
    --------------------------|---------------------------||
    --------------------------|--------------------------*||
    --5--5--5--5--5--5--5--5--|--5--5--5--5--5--5--5--5--*||
    --3--3--3--3--3--3--3--3--|--3--3--3--3--3--3--3--3---||
    --------------------------|---------------------------||



    --------------------------|--------------------------||-----|----|----|----|
    --------------------------|--------------------------||-----|----|----|----|
    --------------------------|--------------------------||*----|----|----|----|
    --------------------------|--------------------------||*----|----|----|----|
    --6--6--6--6--6--6--6--6--|--5--5--5--5--5--5--5--5--||-----|----|----|----|
    --------------------------|--------------------------||-----|----|----|----|



    ----|----|----|-----||---------------------------|--------------------------|
    ----|----|----|-----||---------------------------|--------------------------|
    ----|----|----|----*||*--------------------------|--------------------------|
    ----|----|----|----*||*--------------------------|--------------------------|
    ----|----|----|-----||---------------------------|--------------------------|
    ----|----|----|-----||---1--1--1--1--1--1--1--1--|--1--1--1--1--1--1--1--1--|



    --------------------------|---------------------------||
    --------------------------|---------------------------||
    --------------------------|--------------------------*||
    --------------------------|--------------------------*||
    --3--3--3--3--3--3--3--3--|--5--5--5--5--6--6--6--6---||
    --------------------------|---------------------------||



    --------------------------|--------------------------|
    --------------------------|--------------------------|
    --------------------------|--------------------------|
    --------------------------|--------------------------|
    --------------------------|--------------------------|
    --4--4--4--4--4--4--4--4--|--3--3--3--3--3--3--3--3--|



    --------------------------|--------------------------|
    --------------------------|--------------------------|
    --------------------------|--------------------------|
    --------------------------|--------------------------|
    --3--3--3--3--3--3--3--3--|--4--4--4--4--4--4--4--4--|
    --------------------------|--------------------------|



    --------------------------|--------------------------|
    --------------------------|--------------------------|
    --------------------------|--------------------------|
    --5--5--5--5--5--5--5--5--|--5--5--5--5--5--5--5--5--|
    --3--3--3--3--3--3--3--3--|--3--3--3--3--3--3--3--3--|
    --------------------------|--------------------------|



    --------------------------|--------------------------|
    --------------------------|--------------------------|
    --------------------------|--------------------------|
    --------------------------|--------------------------|
    --3--3--3--3--3--3--3--3--|--3--3--3--3--3--3--3--3--|
    --1--1--1--1--1--1--1--1--|--1--1--1--1--1--1--1--1--|



    --------------------------|--------------------------|
    --------------------------|--------------------------|
    --------------------------|--------------------------|
    --------------------------|--------------------------|
    --6--6--6--6--6--6--6--6--|--5--5--5--5--5--5--5--5--|
    --4--4--4--4--4--4--4--4--|--3--3--3--3--3--3--3--3--|



    --------------------------|--------------------------|
    --------------------------|--------------------------|
    --------------------------|--------------------------|
    --5--5--5--5--5--5--5--5--|--5--5--5--5--5--5--5--5--|
    --3--3--3--3--3--3--3--3--|--3--3--3--3--3--3--3--3--|
    --------------------------|--------------------------|



    --------------------------|--------------------------|
    --------------------------|--------------------------|
    --------------------------|--------------------------|
    --5--5--5--5--5--5--5--5--|--5--5--5--5--5--5--5--5--|
    --3--3--3--3--3--3--3--3--|--3--3--3--3--3--3--3--3--|
    --------------------------|--------------------------|



    --------------------------|--------------------------|
    --------------------------|--------------------------|
    --------------------------|--------------------------|
    --------------------------|--------------------------|
    --3--3--3--3--3--3--3--3--|--3--3--3--3--3--3--3--3--|
    --1--1--1--1--1--1--1--1--|--1--1--1--1--1--1--1--1--|



    --------------------------|--------------------------|
    --------------------------|--------------------------|
    --------------------------|--------------------------|
    --------------------------|--------------------------|
    --6--6--6--6--6--6--6--6--|--5--5--5--5--5--5--5--5--|
    --4--4--4--4--4--4--4--4--|--3--3--3--3--3--3--3--3--|



    --------------------------|--------------------------|
    --------------------------|--------------------------|
    --------------------------|--------------------------|
    --5--5--5--5--5--5--5--5--|--5--5--5--5--5--5--5--5--|
    --3--3--3--3--3--3--3--3--|--3--3--3--3--3--3--3--3--|
    --------------------------|--------------------------|



    --------------------------|--------------------------|
    --------------------------|--------------------------|
    --------------------------|--------------------------|
    --5--5--5--5--5--5--5--5--|--5--5--5--5--5--5--5--5--|
    --3--3--3--3--3--3--3--3--|--3--3--3--3--3--3--3--3--|
    --------------------------|--------------------------|



    --------------------------|--------------------------|
    --------------------------|--------------------------|
    --------------------------|--------------------------|
    --------------------------|--------------------------|
    --3--3--3--3--3--3--3--3--|--3--3--3--3--3--3--3--3--|
    --1--1--1--1--1--1--1--1--|--1--1--1--1--1--1--1--1--|



    --------------------------|--------------------------|
    --------------------------|--------------------------|
    --------------------------|--------------------------|
    --------------------------|--------------------------|
    --6--6--6--6--6--6--6--6--|--5--5--5--5--5--5--5--5--|
    --4--4--4--4--4--4--4--4--|--3--3--3--3--3--3--3--3--|



    --------------------------|--------------------------||-----|----|----|----|
    --------------------------|--------------------------||-----|----|----|----|
    --------------------------|--------------------------||*----|----|----|----|
    --5--5--5--5--5--5--5--5--|--5--5--5--5--5--5--5--5--||*----|----|----|----|
    --3--3--3--3--3--3--3--3--|--3--3--3--3--3--3--3--3--||-----|----|----|----|
    --------------------------|--------------------------||-----|----|----|----|



    ----|----|----|-----||---------------------------|--------------------------|
    ----|----|----|-----||---------------------------|--------------------------|
    ----|----|----|----*||*--------------------------|--------------------------|
    ----|----|----|----*||*--------------------------|--------------------------|
    ----|----|----|-----||---------------------------|--------------------------|
    ----|----|----|-----||---1--1--1--1--1--1--1--1--|--1--1--1--1--1--1--1--1--|



    --------------------------|---------------------------||
    --------------------------|---------------------------||
    --------------------------|--------------------------*||
    --------------------------|--------------------------*||
    --3--3--3--3--3--3--3--3--|--5--5--5--5--6--6--6--6---||
    --------------------------|---------------------------||



    --------------------------|--------------------------|
    --------------------------|--------------------------|
    --------------------------|--------------------------|
    --------------------------|--------------------------|
    --------------------------|--------------------------|
    --4--4--4--4--4--4--4--4--|--3--3--3--3--3--3--3--3--|



    --------------------------|--------------------------|
    --------------------------|--------------------------|
    --------------------------|--------------------------|
    --------------------------|--------------------------|
    --3--3--3--3--3--3--3--3--|--4--4--4--4--4--4--4--4--|
    --------------------------|--------------------------|



    |---------------------------|--------------------------|
    |---------------------------|--------------------------|
    |*--------------------------|--------------------------|
    |*--5--5--5--5--5--5--5--5--|--5--5--5--5--5--5--5--5--|
    |---3--3--3--3--3--3--3--3--|--3--3--3--3--3--3--3--3--|
    |---------------------------|--------------------------|



    --------------------------|--------------------------|
    --------------------------|--------------------------|
    --------------------------|--------------------------|
    --------------------------|--------------------------|
    --3--3--3--3--3--3--3--3--|--3--3--3--3--3--3--3--3--|
    --1--1--1--1--1--1--1--1--|--1--1--1--1--1--1--1--1--|



    --------------------------|--------------------------|
    --------------------------|--------------------------|
    --------------------------|--------------------------|
    --------------------------|--------------------------|
    --6--6--6--6--6--6--6--6--|--5--5--5--5--5--5--5--5--|
    --4--4--4--4--4--4--4--4--|--3--3--3--3--3--3--3--3--|



    --------------------------|---------------------------||
    --------------------------|---------------------------||
    --------------------------|--------------------------*||
    --5--5--5--5--5--5--5--5--|--5--5--5--5--5--5--5--5--*||
    --3--3--3--3--3--3--3--3--|--3--3--3--3--3--3--3--3---||
    --------------------------|---------------------------||



    --------------------------|-----------------------|-------------------|
    --------------------------|-----------------------|-------------------|
    --------------------------|-----------------------|-------------------|
    --5--5--5--5--5--5--5--5--|--6--------------------|--------------5----|
    --3--3--3--3--3--3--3--3--|--4--------------------|--------------3----|
    --------------------------|-----------------------|-------------------|



    ------------------|-------------------|------------------|-------------------|
    ------------------|-------------------|------------------|-------------------|
    ------------------|-------------------|------------------|-------------------|
    ------------------|--------------6----|------------------|--------------5----|
    ------------------|--------------4----|------------------|--------------3----|
    ------------------|-------------------|------------------|-------------------|



    ------------------|----------------------|-------------------|
    ------------------|----------------------|-------------------|
    ------------------|----------------------|-------------------|
    ------------------|----------------------|--6----------------|
    ------------------|----------------------|--4----------------|
    ------------------|----------------------|-------------------|



    -------------------|------------------|-------------------|------------------|
    -------------------|------------------|-------------------|------------------|
    -------------------|------------------|-------------------|------------------|
    --------------5----|------------------|--------------6----|------------------|
    --------------3----|------------------|--------------4----|------------------|
    -------------------|------------------|-------------------|------------------|




    -------------------|------------------|------------------|
    -------------------|------------------|------------------|
    -------------------|------------------|------------------|
    --------------5----|------------------|------------------|
    --------------3----|------------------|------------------|
    -------------------|------------------|------------------|



    |---------------------------|--------------------------|
    |---------------------------|--------------------------|
    |*--------------------------|--------------------------|
    |*--------------------------|--------------------------|
    |---------------------------|--------------------------|
    |---1--1--1--1--1--1--1--1--|--1--1--1--1--1--1--1--1--|




    --------------------------|---------------------------||
    --------------------------|---------------------------||
    --------------------------|--------------------------*||
    --------------------------|--------------------------*||
    --3--3--3--3--3--3--3--3--|--5--5--5--5--6--6--6--6---||
    --------------------------|---------------------------||




    --------------------------|--------------------------|
    --------------------------|--------------------------|
    --------------------------|--------------------------|
    --------------------------|--------------------------|
    --------------------------|--------------------------|
    --4--4--4--4--4--4--4--4--|--3--3--3--3--3--3--3--3--|



    --------------------------|--------------------------|----|----|----|----|----|
    --------------------------|--------------------------|----|----|----|----|----|
    --------------------------|--------------------------|----|----|----|----|----|
    --------------------------|--------------------------|----|----|----|----|----|
    --3--3--3--3--3--3--3--3--|--4--4--4--4--4--4--4--4--|----|----|----|----|----|
    --------------------------|--------------------------|----|----|----|----|----|



    ----|----|----|--------------------------||---------------------------|
    ----|----|----|--------------------------||---------------------------|
    ----|----|----|--------------------------||*--------------------------|
    ----|----|----|--5--5--5--5--5--5--5--5--||*--5--5--5--5--5--5--5--5--|
    ----|----|----|--3--3--3--3--3--3--3--3--||---3--3--3--3--3--3--3--3--|
    ----|----|----|--------------------------||---------------------------|



    --------------------------|--------------------------|
    --------------------------|--------------------------|
    --------------------------|--------------------------|
    --5--5--5--5--5--5--5--5--|--------------------------|
    --3--3--3--3--3--3--3--3--|--3--3--3--3--3--3--3--3--|
    --------------------------|--1--1--1--1--1--1--1--1--|



    --------------------------|--------------------------|
    --------------------------|--------------------------|
    --------------------------|--------------------------|
    --------------------------|--------------------------|
    --3--3--3--3--3--3--3--3--|--6--6--6--6--6--6--6--6--|
    --1--1--1--1--1--1--1--1--|--4--4--4--4--4--4--4--4--|



    --------------------------|--------------------------|
    --------------------------|--------------------------|
    --------------------------|--------------------------|
    --------------------------|--5--5--5--5--5--5--5--5--|
    --5--5--5--5--5--5--5--5--|--3--3--3--3--3--3--3--3--|
    --3--3--3--3--3--3--3--3--|--------------------------|


    2x
    ---------------------------||
    ---------------------------||
    --------------------------*||
    --5--5--5--5--5--5--5--5--*||
    --3--3--3--3--3--3--3--3---||
    ---------------------------||

     
Teoman - Güzel Bir Gün - TAB (versiyon 1) konusuna benzer diğer içeriklerimiz
  1. Teoman - Kişisel Bir Şey - AKOR (versiyon 1)

    Teoman - Kişisel Bir Şey - AKOR (versiyon 1)

    Am G Kisisel bir sey degil bu yasamak zor buralarda F E Kimdendi bu yara diye,kalbine sordugunda, Am G Ggercegi istiyorsan diyeceklerimi unuttum F E Garip geliyor dostlar iz bırakmadan kaybolunca ( B Am B ( Bilirim geri gelmezler ama,en güzel günleriydi onlar, ( Am...
  2. Teoman - Paramparça - AKOR (versiyon 1)

    Teoman - Paramparça - AKOR (versiyon 1)

    paramparça akor Bm saatim yok tam olarak bilemem Em biraz bira biraz sarap önceydi Bm nasil oluyor vakit bir türlü geçmezken F# Bm yillar hayatlar geçiyor? Bm kayip bir bavul gibiyim hava alaninda Em yada bos bir yüzme havuzu son baharda Bm çok mu ayip hala mutluluk istemek? F# Bm neyse zaten hiç halim yok Em bugün...
  3. Teoman - Gemiler - AKOR (versiyon 1)

    Teoman - Gemiler - AKOR (versiyon 1)

    teoman gemiler akor sen geçerken sahilden sessizce akor ben geçerken sahilden sessizce sen teoman C#m F#m Bir an için çıksam hayatından, B C#m Yanık tenli omuzunda F#m Haykırsam maziden uzaklarda, B G# Şu anda yanında A B Deniz rüzgara...
  4. Teoman - Hepsi Bir Ya Sonunda - AKOR (versiyon 1)

    Teoman - Hepsi Bir Ya Sonunda - AKOR (versiyon 1)

    intro: Bm D G A X2 Bm D G A Bm D G ) Renkler mevsimler soluyorsa ) A Bm D G A Bm D G A ) Sen evde yokken sevgi seni arıyorsa ) Bm D G A Bm D G ) Günler yağmurlarla yok olsa ) A Bm D G A Bm D G A ) A Çok küçüksen üstüne basılıyorsa )...
  5. Teoman - Kıskançlık - AKOR (versiyon 1)

    Teoman - Kıskançlık - AKOR (versiyon 1)

    C G# C Bir gün daha bitti önümde G# C Günler gelir geçer ve antibiyotikler G# C Kimim ben, bugün ne günlerden? G# Kırk derece yüksek ateş Am Ve kıskançlık G Bu zayıflık anında F Am Bir aşkın komasında G F C Kıskançlık...

Sayfayı Paylaş