gebe
  1. kaprisli

    kaprisli Yeni Üye Üye

    Kayıt:
    13 Kasım 2008
    Mesajlar:
    4.648
    Beğenilen Mesajlar:
    19
    Ödül Puanları:
    0

    Teoman - Rapsodi İstanbul - TAB (versiyon 1)

    Konu, 'Akor-Tab-Nota' kısmında kaprisli tarafından paylaşıldı.

    rapsodi istanbul tab teoman rapsodi istanbul tab e|-------1----------------------------3-5-6-----------------1------ B|-3-1-3---3---1---1---1-2-1------3-1-------3-3-1---1---1-3--------
    G|---------------3---3----------------------------3---3------------
    D|-----------------------------------------------------------------
    A|-----------------------------------------------------------------
    E|-----------------------------------------------------------------



    e|-8-10-11-10-8---------------8------------------------------------
    B|--------------11-10-8-10-11---11-10-11---------------------------
    G|---------------------------------------7-7-----------------------
    D|-----------------------------------------------------------------
    A|-----------------------------------------------------------------
    E|-----------------------------------------------------------------



    e|-------------------8-10----8----8--------------------------------
    B|-7-8-10-8-10-11---------11---10---11-10-8-7---6-7-8--------------
    G|--------------------------------------------7--------------------
    D|-----------------------------------------------------------------
    A|-----------------------------------------------------------------
    E|-----------------------------------------------------------------

     
Teoman - Rapsodi İstanbul - TAB (versiyon 1) konusuna benzer diğer içeriklerimiz
  1. Teoman - Paramparça - AKOR (versiyon 1)

    Teoman - Paramparça - AKOR (versiyon 1)

    paramparça akor Bm saatim yok tam olarak bilemem Em biraz bira biraz sarap önceydi Bm nasil oluyor vakit bir türlü geçmezken F# Bm yillar hayatlar geçiyor? Bm kayip bir bavul gibiyim hava alaninda Em yada bos bir yüzme havuzu son baharda Bm çok mu ayip hala mutluluk istemek? F# Bm neyse zaten hiç halim yok Em bugün...
  2. Teoman - Ayna - AKOR (versiyon 1)

    Teoman - Ayna - AKOR (versiyon 1)

    Am Dm Am G E--0-----0------1-3-1-0----- I -0-----0-----------------0-- B----1-----3-1---3------3--- I ---1-----3-1-0-----3-1-3---- G------2------------------2- I -----2---------0------------ D--------2-2-2--0-0-0-0----- I -----------------0---------- A--0------------------------ I -0-----0-----------------0-- E--------------------------- I -------------3-------------- Am Dm...
  3. Teoman - Gemiler - AKOR (versiyon 1)

    Teoman - Gemiler - AKOR (versiyon 1)

    teoman gemiler akor sen geçerken sahilden sessizce akor ben geçerken sahilden sessizce sen teoman C#m F#m Bir an için çıksam hayatından, B C#m Yanık tenli omuzunda F#m Haykırsam maziden uzaklarda, B G# Şu anda yanında A B Deniz rüzgara...
  4. Teoman - İstanbulda Sonbahar - AKOR (versiyon 1)

    Teoman - İstanbulda Sonbahar - AKOR (versiyon 1)

    Am ----------0-----------0----- -------1-----1-----1-------- ----2-----------2----------- ---------------------------- --0------------------------- ---------------------------- Am Dm Am Mevsim rüzgarlari ne zaman eserse o zaman hatirlarim G Am Çocukluk rüyalarim, seytan uçurtmalarim Am Dm...
  5. Teoman - Kıskançlık - AKOR (versiyon 1)

    Teoman - Kıskançlık - AKOR (versiyon 1)

    C G# C Bir gün daha bitti önümde G# C Günler gelir geçer ve antibiyotikler G# C Kimim ben, bugün ne günlerden? G# Kırk derece yüksek ateş Am Ve kıskançlık G Bu zayıflık anında F Am Bir aşkın komasında G F C Kıskançlık...

Sayfayı Paylaş