gebe
  1. kaprisli

    kaprisli Yeni Üye Üye

    Kayıt:
    13 Kasım 2008
    Mesajlar:
    4.648
    Beğenilen Mesajlar:
    19
    Ödül Puanları:
    0

    Teoman - Uykusuz Her Gece - TAB

    Konu, 'Akor-Tab-Nota' kısmında kaprisli tarafından paylaşıldı.

    teoman uykusuz her gece tab uykusuz her gece tab E---------------------------0-0-2-3-0-0-2-3---3-2-0--------- A--0-0-2-3~~0-0-2-3-------------------------2---------------
    D--------------------4p5-2----------------------------------
    G-----------------------------------------------------------
    B-----------------------------------------------------------
    e-----------------------------------------------------------





    E---------------------------0-0-2-3-2-0---------------------
    A--0-0-2-3~~0-0-2-3-----------------------------------------
    D--------------------4p5-2---------------4p5-2-4p5-2-1-2----
    G-----------------------------------------------------------
    B-----------------------------------------------------------
    e-----------------------------------------------------------



    Tam ona Sarılırken gördüm pencereden
    E-----------0--0----------------------0-0-------------------
    A-----------2--2----------------------2-2-------------------
    D-----------2--2----------------------2-2-------------------
    G-----------0--0---8-12---------------0-0--8-12-------------
    B------------------8-12--------------------8-12-------------
    e------------------8-12--------------------8-12-------------



    Gülünecek ne vardı gülüyordun ya öperken
    E-----------0--0------------------5--5-----------5-5--------
    A-----------2--2------------------7--7-----------7-7--------
    D-----------2--2------------------7--7-----------7-7--------
    G-----------0--0--8-12-------------------12-8---------------
    B-----------------8-12-------------------12-8---------------
    e-----------------8-12-------------------12-8---------------



    Bu gece seninle Olalım canım derken
    E-5-5----------5-5-----0-0---------0-0----------------------
    A-7-7----------7-7-----2-2---------2-2----------------------
    D-7-7----------7-7-----2-2---------2-2----------------------
    G-------12-8-----------0-0---8-12--0-0----------------------
    B-------12-8-----------------8-12---------------------------
    e-------12-8-----------------8-12---------------------------



    sildim seni o anda kalbimden
    E---------------------------5--5----------------------------
    A------------5--3--3--1--1--7--7----------------------------
    D------------7--5--5--3--3--7--7----------------------------
    G------------7--5--5--3--3----------------------------------
    B-----------------------------------------------------------
    e-----------------------------------------------------------



    Em
    Neydi kopan içimden
    Em
    Yıllar zincirinden
    Em
    Öldüm sanki yaşarken
    Em
    Kaçtım hemen o sahneden
    Am
    Kendimi buldum ben çalıştığım bu yerde
    Em
    Azalır acılarda belki gitgide

     
Teoman - Uykusuz Her Gece - TAB konusuna benzer diğer içeriklerimiz
  1. Her tarafımı acıtıyor gece

    Her tarafımı acıtıyor gece

    Her tarafımı acıtıyor gece, İmkansızlıkları düşlüyorum belki de kimbilir, Umutlarım sokak ortasında delice koşan bir çocuğun vurulup ölmesiydi artık. Uykum uzaklaşıyor bedenimden, Gözlerimin su yolları taştı, Göz yaşlarımla söndürüyorum yokluğunun ateşini, Ellerini tutmak aşk hırsızlığına giriyor, Yasak ama; sarıl bana, Buna gerçekten ihtiyacım var. Tüm yollar sana çıkıyor,...
  2. Mustafa Yıldızdoğan - Her Gece

    Mustafa Yıldızdoğan - Her Gece

    Doğmaz şu güneş doğmaz, doğup ta sabah olmaz x 2 Bende ki bu feryadı kimseler duymaz x 2 [Nakarat] x 2 Her gece artık yeter Her gece dünden beter Her gece seni düşünmek Her gece hasretin tüter Gece çökünce gece, gece olur işkence x 2 Gözlerimde gözlerin, yüreğimde kelepçe x 2 [Nakarat] x 2 __________________
  3. Mirkelam - Her Gece

    Mirkelam - Her Gece

    Öyle günler olduki senle ) Konuşmasam olmaz ki ) Resimleri bir yana atmak hiç olmaz ki ) 2 Seni unutturmaz ki ) [Nakarat] Bu yüzden her gece ben Her gece üzülmüşüm Bu yüzden her gece bu Aşkın diline düşmüşüm Söyle sevgili hadi söyle ) Hiç mi mutlu olmadık ) Martıları sayarken hiç mi hayal kurmadın ) 2 Resimlere bakarken ) [Nakarat] x 6 __________________
  4. gece kuşu teoman

    gece kuşu teoman

    P { margin: 0px; } Gece hayatının görünen yüzünü kameralar gösterir ama bir de buz dağının görünmeyen yüzü vardır… Barların içine giremeyen kameralar orada gözlerden uzak eğlence dünyasını görüntüleyemez… Ve gizli dünyada neler yaşanır neler… İşte böyle bir dedikodu çalındı kulağımıza… Üç yıl veya dört yıl öncesinden bir dedikodu bu… Başrolünde Teoman var… Gece hayatının...
  5. Her gece sen

    Her gece sen

    Her gece sen girersin rüyalarıma Her gece sen... Paramparça olur uykularım.Karanlığın en koyulaştığı yerde kapının çalındığını duyarım.Açınca soğuk bir rüzgar çarpar yüzüme.Sen yoksun...Kilitlenir dudaklarım gözlerim karanlıklarda boşuna arar seni.Sen yoksun..Yalnızlığımı kadehlere doldurup tek başıma içmeliyim bu gece.Kırmalıyım kitapları evleri ateşe vermeliyim. Sen yoksun... Zaman gitgide...

Sayfayı Paylaş