gebe
  1. kaprisli

    kaprisli Yeni Üye Üye

    Kayıt:
    13 Kasım 2008
    Mesajlar:
    4.648
    Beğenilen Mesajlar:
    19
    Ödül Puanları:
    0

    Yalın - Meleklerin Sözü Var - TAB (versiyon 1)

    Konu, 'Akor-Tab-Nota' kısmında kaprisli tarafından paylaşıldı.

    C C Am Am e---------------------------------------------|------------------------------------- B--------1---------0-------------1--------0---|------------1-------1-----------1-----
    G-----------0-----------------------0---------|---------2------2-----------2------2--
    D----2---------2------------2---------2-------|------2-----------2------2----------2-
    A--3---------------------3--------------------|---0-------------------0--------------
    E---------------------------------------------|--------------------------------------
    Dm G C
    e-----------1---------0--|----------------3-------|----------------------------------
    B--------3-----3---------|-------------0-----0----|------------3--------1-------1----
    G-----2-----------2------|----------0----------0--|---------0-----0--------0------0--
    D--0---------------------|------------------------|----2------------2--------2-----2-
    A------------------------|------------------------|-3--------------------------------
    E------------------------|---3--------------------|----------------------------------
    C C Am Am
    e------------------------------------|--------------------------------------|--------
    B----------1-----------------1-------|-------------1-------1--------1-------|--------
    G-------0----0------------0-----0----|----------2-----2-----------2----2----|--------
    D----2---------2-------2-----------2-|-------2----------2-------2--------2--|--------
    A--3----------------3----------------|----0-------------------0-------------|--------
    E------------------------------------|--------------------------------------|--------
    Dm G C
    e----------1------0-|------------3------|-----------------------------------|--------
    B-------3----3------|---------0----0----|------------3-------1-------1------|--------
    G----2---------2----|-------0--------0--|---------0-----0-------0------0----|--------
    D--0----------------|-------------------|------2----------2-------2-------2-|--------
    A-------------------|-------------------|---3-------------------------------|--------
    E-------------------|---3---------------|-----------------------------------|--------
    C C Am Am
    e--------------------------------|------------------------------------|--------------
    B----------1--------------1------|------------1-------1---------1-----|--------------
    G-------0----0---------0----0----|----------2----2------------2---2---|--------------
    D-----2--------2-----2--------2--|-------2--------2--------2-------2--|--------------
    A--3---------------3-------------|-----0------------------0-----------|--------------
    E--------------------------------|------------------------------------|--------------
    Dm G C
    e-----------1-------0--|--------------3------|---------------------------------|-----
    B--------3-----3-------|------------0---0----|-------------3-------1-----1-----|-----
    G-----2-----------2----|----------0-------0--|-----------0----0-------0-----0--|-----
    D--0-------------------|---------------------|--------2---------2--------------|-----
    A----------------------|---------------------|-----3---------------------------|-----
    E----------------------|----3----------------|---------------------------------|-----

     
Yalın - Meleklerin Sözü Var - TAB (versiyon 1) konusuna benzer diğer içeriklerimiz
  1. Yalın - Değmez - AKOR (versiyon 1)

    Yalın - Değmez - AKOR (versiyon 1)

    A D ) Söz aşka gelmişken ) E A ) İki yabancıyız hala ) A D ) Duygular uçuşurken ) E A ) Gizleniyoruz yanımda ) x2 D Bm ) Ayrılalım unutalım ) E A ) Üzüldük biraz durulalım ) A D )...
  2. Yalın - Keşke - AKOR (versiyon 1)

    Yalın - Keşke - AKOR (versiyon 1)

    yalın keşke akor Am E Am Bırak saygından kuşkum yok E Am E Am E Hatrımdan kalıyorsan hiç kalma bırak Am E Am Sensiz olmaya itirazım var E Am Canımı çok yakacak E Am İzlerin bana yeter Dm E Am Keşke oyunlar oynamasaydık Am Dm Üzülmeseydi şarkılar E...
  3. Yalın - Seni Buralarda Bir Özleyen Var - AKOR (versiyon 1)

    Yalın - Seni Buralarda Bir Özleyen Var - AKOR (versiyon 1)

    Em B7 Em B7 Ben taptıkça o hepten kaçar gider ) Em Am C B7 )2 Küçücük dertleri dev yapar küseeer ) G D Am Em ( İşte böyle bir aşık canından bezer ) ( G D Am B7 ) ( Ve böyle bir kuş sürüden uçar gider ) ( Em Am ) A ( Niye canım yansın yine...
  4. Yalın - Seviyorum - AKOR (versiyon 1)

    Yalın - Seviyorum - AKOR (versiyon 1)

    Dm Gm Resim mesim hayatın her anı yastığa değdiğinden beri başım A Dm Gözümün önünde her kare ve sen Dm Gm Yalan yalnış kavgalar isyanı elime dediğinden beri tenin...
  5. Yalın - Yağmur - AKOR (versiyon 1)

    Yalın - Yağmur - AKOR (versiyon 1)

    yalın yağmur tab yalın yağmur akor damlası akor INTRO- Em-Am-D-G-C-Am-B7 Em Am Kışla yaz gibiydik sen kar tanesi ben güneş D G Çözmek zor bu buzları yalvarsam ne fark eder C Am Çocukça kavgalar bunlar mazeretler B7 Sebebimiz olmuş yabancı gözler Em...

Sayfayı Paylaş