gebe
  1. kaprisli

    kaprisli Yeni Üye Üye

    Kayıt:
    13 Kasım 2008
    Mesajlar:
    4.648
    Beğenilen Mesajlar:
    19
    Ödül Puanları:
    0

    Teoman - Kupa Kızı Ve Sinek Valesi - TAB (versiyon 1)

    Konu, 'Akor-Tab-Nota' kısmında kaprisli tarafından paylaşıldı.

    kupa kızı ve sinek valesi tab teoman kupa kızı sinek valesi tab solo teoman ve G-----------------------------------3-----------------------3---I D---------------3--5--5--3--5--3--5------5--5--3--5--3--5-------IBASS TAB
    A---------------------------------------------------------------I
    E---------------------------------------------------------------I

    G-------------------------------------------------------------I
    D-------------------------------------------------------------I
    A-------------6---6--5--6--5--6--3--5--5--3--5--3--5---6------I
    E-------------------------------------------------------------I

    G-----------------------------------3-----------------------3----I
    D---------------3--5--5--3--5--3--5------5--5--3--5--3--5--------I
    A----------------------------------------------------------------I
    E----------------------------------------------------------------I

    G-------------------------------------------------------------I
    D-------------------------------------------------------------I
    A--------------6---6--5--6--5--6--3--5--5--3--5--3--5-----3---I
    E----------------------------------------------------6--------I

    GİRİŞ............................................................................
    G#m F#
    Bir iskambil falında çıkmıştık bir birimize
    G#m F#
    O güzel kupa kızıydı sinek valesiydim bense
    G#m F#
    Geceyarısı o perşembe rastladım köprü üstünde
    G#m F#
    Ağlama dedim o ağladı trabzanlardan indiğinde
    B F#
    Saçlarınmı ıslak yoksa ıslakmı yaşamak dedim
    G#m F#
    Senin için rüzgarda hep yağmurmu var
    B F#
    Gözlerinmi daldı yoksa sıkıldınmı sorulardan
    G#m F#
    Hiç geçmezmi gözlerinden bu sonbahar
    G#m F#
    Bir kar tanesi ol kon dilimin ucuna
    E F#
    Bir kar tanesi eri ağzımda

    G---------------8--7--5------------------I
    D----5--6--5-----------------------------I
    A----------------------------------------I
    E----------------------------------------I
    SOLO..................................................

    G#m F#
    Sırılsıklamdı soyundu vücuduma dokundu
    G#m F#
    Biraz pürüzlü tenimde yaşam hücrelerimi buldu
    G#m F#
    Mutluydum o uyudu sarıldım sayıklarken
    G#m F#
    Tanımadığım o adları yanımda çırılçıplak

    B F#
    Saçlarınmı ıslak yoksa ıslakmı yaşamak dedim
    G#m F#
    Senin için rüzgarda hep yağmurmu var
    B F#
    Gözlerinmi daldı yoksa sıkıldınmı sorulardan
    G#m F#
    Hiç geçmezmi gözlerinden bu sonbahar
    G#m F#
    Bir kar tanesi ol kon dilimin ucuna
    E F#
    Bir kar tanesi eri ağzımda

    G---------------8--7--5------------------I
    D----5--6--5-----------------------------I
    A----------------------------------------I
    E----------------------------------------I
    SOLO..................................................

    G#m F#
    Rüyamda gururluydum biliyordum diyordum
    G#m F#
    İnanmak lazımmış meğer iskambil fallarına
    G#m F#
    Uyandım baka kaldım hayali bir parmağın
    G#m F#
    Bıraktığı yazıyla pencere camının buğusuna


    G-----------------------------------3-----------------------3---I
    D---------------3--5--5--3--5--3--5------5--5--3--5--3--5-------I
    A---------------------------------------------------------------I
    E---------------------------------------------------------------I

    G-------------------------------------------------------------I
    D-------------------------------------------------------------I
    A-------------6---6--5--6--5--6--3--5--5--3--5--3--5---6------I
    E-------------------------------------------------------------I

    G-----------------------------------3-----------------------3----I
    D---------------3--5--5--3--5--3--5------5--5--3--5--3--5--------I
    A----------------------------------------------------------------I
    E----------------------------------------------------------------I

    G-------------------------------------------------------------I
    D-------------------------------------------------------------I
    A--------------6---6--5--6--5--6--3--5--5--3--5--3--5-----3---I
    E------------------------------------------------------6------I

     
Teoman - Kupa Kızı Ve Sinek Valesi - TAB (versiyon 1) konusuna benzer diğer içeriklerimiz
  1. Teoman - Motosikletli Kız - AKOR (versiyon 1)

    Teoman - Motosikletli Kız - AKOR (versiyon 1)

    motosikletli kız akor Am Motosikletli kız günlerdir G F Seni bulmak için buralardayım E Sen yoksun Am Motosikletli kız çatladımı G F Dudağın avucun yüzün yüreğin E Üşüyormusun Am Kırık bir kalp elinde kala kala kala kala Am G Bir karamal tadıysa dünya senin ağzında F E Gittikçe azalan her nefes...
  2. Teoman - Paramparça - AKOR (versiyon 1)

    Teoman - Paramparça - AKOR (versiyon 1)

    paramparça akor Bm saatim yok tam olarak bilemem Em biraz bira biraz sarap önceydi Bm nasil oluyor vakit bir türlü geçmezken F# Bm yillar hayatlar geçiyor? Bm kayip bir bavul gibiyim hava alaninda Em yada bos bir yüzme havuzu son baharda Bm çok mu ayip hala mutluluk istemek? F# Bm neyse zaten hiç halim yok Em bugün...
  3. Teoman - Yazgı - AKOR (versiyon 1)

    Teoman - Yazgı - AKOR (versiyon 1)

    İntro:Em-D-Em/Em-D-Em/Em-D-Em-D/C-D-Em Em Sil severek gözleri C D Em-D-Em Dilsiz ellerinle sarmala sar beni Em korkusuz isteğin bağırsın C D Em-D-Em Ölmemiş sevgiler arasına koy beni Em D G Em-D-Em Aslında yok çaresi bilirim Em D G Em-D-Em Canlar verir soğuk nefesim Em D...
  4. Teoman - Gökdelenler - AKOR (versiyon 1)

    Teoman - Gökdelenler - AKOR (versiyon 1)

    Am Dm Uzun uzun seyrettim seni Diğer köşesinden barın Am Dm Bir karakter oturttum yüzüne kalbine Am Dm Uzaktan bakıp insanlara Konuşmalar yazdım dudaklara Am Dm E Sonra kendime baktım Tıklım tıklım yalnızdım Am Dm Gökdelenlerden tükürdüm dünyaya F E Ben...
  5. Teoman - İnsanlar - AKOR (versiyon 1)

    Teoman - İnsanlar - AKOR (versiyon 1)

    C Am F Gel olduğun gibi tuzla buz et beni G Camdanmışım gibi C Am F Bana hatırlat nasıl bişeydi birşeye inanmak G Tutkuya tutunmak C Am İnsanlar insanlar )n F G )a Dünya düşmüş üstlerine kıpırdayamıyorlar)k C Am...

Sayfayı Paylaş