1. MaWiM

    MaWiM ♥Ben Aşık Olduğum Adamın Aşık Olduğu Kadınım♥ Yetkili Kişi

    Kayıt:
    25 Temmuz 2007
    Mesajlar:
    31.467
    Beğenilen Mesajlar:
    2.303
    Ödül Puanları:
    113

    DumaN - Köprü ALtı (akor)

    Konu, 'Akor-Tab-Nota' kısmında MaWiM tarafından paylaşıldı.

    G-----13-------14-----------9---13-14--13-------16---------- D----X-----X---------X2-----X---X--X---X-&----X-------------
    A---11----12----------------7--11-12--11---14---------------
    E---0---0---------0---------0--0--0---0-&-0-----------------

    Riff 1 her nakarat bittiği zaman ve geçişlerde çalınınacak

    Riff 2
    G----------------13--------14-------------------------------

    D--------------X---------X---------------------------------- A------------11-------12------------------------------------
    E----------0--------0---------------------------------------
    Denizler aştım geliyorum
    Bilirsin derdim seninle

    Riff 3
    D-----7-----6--------------4--------------------------------
    A-----5-----4-------4------2--------------------------------
    E-------------------2---------------------------------------
    D5 D#5 F#5 B5

    Denizler aştım geliyorum ister eğlen benimle
    Yüzünü bir görsem yeter
    G---------4------5-------7-----------------
    A--4------3------4-------6-----6----11-----------
    E--2------4------5-------7-----4----9-----------


    F#5 G#7(9) G7(9) B7(9) G#5 C#5


    Nakarat
    E-----------------------------------------------------------
    B----13----12-------5---------------------------------------
    G----11----10-------4---------------------------------------
    D-----------------------------------------------------------
    A----12----11-------4-----4 -6---7----7-----6----11--------
    E----10----9--------2-----2---4---5----9-----4----9---------


    F#5 G#5 A5 B5 G#5 C#5
    E-----------------------------------------------------------
    B---------------------------------10-9---10---12----10 9----
    G---------------------------------11-----11---------11------
    D--------------------------------12-----12----------12------
    A-----------------------------------------------------------
    E-------4h7-----nakarat tekrar------------------------------
    -----------------

    nakarat ve bitiş



     
DumaN - Köprü ALtı (akor) konusuna benzer diğer içeriklerimiz
  1. DumaN - YaNıbaşımdaN (akor)

    DumaN - YaNıbaşımdaN (akor)

    duman yanıbaşımdan akor duman yanıbaşımdan tab akor --------------------------------------------------------------------------- Her sözde burası çalınıyo --------------------------------------------------------------------------- şarkıyı dinlerseniz anlarsınız... ---------------------------------------------------------------0-----------...
  2. DumaN - YaLnızLık PayLaşıLmaz (akor)

    DumaN - YaLnızLık PayLaşıLmaz (akor)

    yalnızlık paylaşılmaz akor duman yalnızlık paylaşılmaz akor Bm G (F#) Uzak dur yakınıma Bm G (F#) Bu mesafe beni bozar Bm G Kimseler yanaşmasın A F# Yalnızlık paylaşılmaz Bm G (F#) İnceden hatırlarım Bm G (F#) O eski dostlukları Bm G Şimdi herkes ayrı uçta A F# Kaderini inkar eder Bm G (F#) Kimi yere kimi över Bm G (F#) Her biri ilgi bekler Bm G Aman abim ulaşılmaz A F# Yalnızlık...
  3. DumaN - ÖzgürLüğün ÜLkesi (akor)

    DumaN - ÖzgürLüğün ÜLkesi (akor)

    özgürlüğün ülkesi akor duman özgürlüğün ülkesi akor Giriş G| 4-4-4 -5-5-5 -6 D| 4-4-4 5-5-5 5-5-5 6-6-6 6 7 A| 2-2-2 5-5-5 3-3-3 6-6-6 4 7 E| -3-3-3 -4-4-4 -5 Devamı G| 7-7-7 -8-8-8 -9 10 D| 7-7-7 8-8-8 8-8-8 9-9-9 9 10 A| 5-5-5 8-8-8 6-6-6 9-9-9 7 8 E| -6-6-6 -7-7-7 Solo G| | D| 11-11-11-11-11 | A| -7-8 11-11-11-11-11 | E| 9-10 -9-10 -9 9 9 9 9 -| 4 Defa çalınacak
  4. DumaN - Manası Yok (akor)

    DumaN - Manası Yok (akor)

    Bm E Bm E e|----------------------------------------| B|-7p8-7-5-7---3p5-3-2-0---7p8-7-5-7-3'5b-| G|----------------------------------------| D|----------------------------------------| A|----------------------------------------| E|----------------------------------------| Bm E C9 A e|----------------------------------------| B|-7p8-7-5-7---3p5-3-2-0---3p5-3-2-2-0-2b-|...
  5. DumaN - İstanbuL (akor)

    DumaN - İstanbuL (akor)

    duman istanbul akor duman sarhoş tab istanbul tab guitar pro gp5 G#5 F#5 G#5 F#5 D-----666-4444-666-------4444--------666-4444-6---------66-4444-- A-----666-4444-666-------4444--------666-4444-6---------66-4444-- E-----444-2222-444-------2222--------444-2222-4---------44-2222-- Bu şehir rakıyla yaşar Bu şehir cigarayı çeker Bu şehir gündüzü yaşar Bu şehir geceyi se_ver Bu şehir adamı sö__ver...

Sayfayı Paylaş