gebe
  1. kaprisli

    kaprisli Yeni Üye Üye

    Kayıt:
    13 Kasım 2008
    Mesajlar:
    4.648
    Beğenilen Mesajlar:
    19
    Ödül Puanları:
    0

    Feridun Düzağaç - Beni Unutma - TAB

    Konu, 'Akor-Tab-Nota' kısmında kaprisli tarafından paylaşıldı.

    beni unutma tab E|-------1-------4-|-------6----------|
    b|-------2-------6-|-------8----------|
    g|-----3-------6---|-----8-------6----|
    d|---3-------6-----|---8-------6------|
    a|-1-------4-------|-6-------4-----43-|
    e|-----------------|------------------|



    e|-----6-8-4-------|-----4-6-31-------|

    b|-----------------|------------4-----| g|-----------------|------------------|
    d|-----------------|------------------|
    a|-----------------|------------------|
    e|-----------------|------------------|

    e|-------1---------|-----3-------3---|
    b|-------2-----8---|-----5-------5---|
    g|-----3---------8-|-------3-------3-|
    d|---3-------6-----|---5-------5-----|
    a|-1-------4-------|-3-------3-------|
    e|-----------------|-----------------|


    e|-----6-8-4---3-1-|-01-3------------|
    b|-----------------|-----------------|
    g|-----------------|-----------------|
    d|-----------------|-----------------|
    a|-----------------|-----------------|
    e|-----------------|-----------------|

     
Feridun Düzağaç - Beni Unutma - TAB konusuna benzer diğer içeriklerimiz
  1. Feridun Düzağaç - Ağlamıyorum-Akor

    Feridun Düzağaç - Ağlamıyorum-Akor

    (Gm D# Cm D7) Gm D7 Bir yanım sana çırpınır Cm D7 Bütünüm boğulur sende Gm D7 Zincirini kırdığım arsız aşk Cm D7 Üzerimde demirden perde Cm D7 ) Seni düşünürken içtiğim sigarayı ) Cm D7 ) Korkarım ben söndürmeye ) Cm D# D7 ) A Sürsün bu ölüm ağır ağır ) Gm D# D7 ) Gözlerimde boğulma diye ) Gm D# ) Ağlamıyorum ağlamıyorum ) Cm D7 ) B x2 Ağlamıyorum yine de ) (Gm D# Cm...
  2. Feridun düzağaç-söz ver

    Feridun düzağaç-söz ver

    Dm Bb C Dm İnanırdım duyduğum her söze, bir zamanlar saflık vardı C Dm Bb A Şimdi yerim yok aldanmaya, bir hayat sıradanı kalbim Dm Bb C Dm Bana bitmeyen bir tek şey söyle, söyle sonsuza inanayım C Dm Bb C A...
  3. Feridun Düzağaç - FD7 2010

    Feridun Düzağaç - FD7 2010

    Feridun Düzağacı severek dinleyen biri olarak benim gibi sanatçıyı sevenler için sanatçının yepyeni albümünün müjdesini vermek istiyorum bakalım sevilen sanatçının yeni albüm bilgileri nelermiş 1. Ağır Ağır 2. Mütamadiyen ağlıyorum 3. Bir varmış bir yokmuş 4. Rüya 5. Devrik 6. Hayat Neden Şekil Yapıyor 7. Aşkın Önsözü Ayrılık 8. Sensiz 9. Iz 10. Bir Aşk Masalı
  4. Feridun Düzağaç K.E.L. Konseri

    Feridun Düzağaç K.E.L. Konseri

    feridun düzağaç konseri, K.E.L. konseri, saati ve tarihi, yeri, ile ilgili bilgileri burada bulabilirsiniz Sevgili melekler, Feridun Düzağaç'ın KEL'de vereceği konserin ayrıntıları aşağıda ki gibidir: Sanatçı: Feridun Düzağaç Yer : Kabataş Erkek Lisesi - Çırağan Cad. No: 40 - Ortaköy / İstanbul Tarih: 01 Haziran 2011 Çarsamba 14:00 Fiyat : Günlük Bilet Ayakta: 20,00 TL Kombine...
  5. Feridun Düzağaç Kimdir, Resimleri

    Feridun Düzağaç Kimdir, Resimleri

    Feridun Düzağaç Kimdir, Resimleri var mı sizin sitenizde? Varsa lütfen konu linkini atın ya da konusunu açın.

Sayfayı Paylaş