gebe
  1. kaprisli

    kaprisli Yeni Üye Üye

    Kayıt:
    13 Kasım 2008
    Mesajlar:
    4.648
    Beğenilen Mesajlar:
    19
    Ödül Puanları:
    0

    Gökhan Türkmen - Büyük İnsan - AKOR (versiyon 4)

    Konu, 'Akor-Tab-Nota' kısmında kaprisli tarafından paylaşıldı.

    büyük insan notaları İNTRO (D#m-G#m-D#m-G#m-B-F#-G#m-D#m)
    E-------------------------- // -------------------------- //
    B-------------------------- // -------------------------- //
    G-------------------------- // -------------------------- //
    D---8---6-8-6h8h6---6------ // ---8---6-8-6h8h6---6------ //
    A-6---9-----------9---9-7-6 // -6---9-----------9---9-7-6 //
    E-------------------------- // -------------------------- //

    E-------------------------- // -------------------------- //
    B-------------------------- // -------------------------- //
    G--8----6-8-6----6--------- // -------------------------- //

    D----9---------9---9-8-6--- // -9-8-9-8h9h8-6---6-------- // A-6------------------------ // ---------------9---9-7-9-6 //
    E-------------------------- // -------------------------- //

    G#m D#m G#m
    At savur at sevdayı bir yere fırlat
    D#m G#m
    Bitti sayıp acıyı kaldır öyle at...
    G#m D#m G#m
    Sor herkese sor acılar unutuluyor
    D#m G#m
    Ağlayınca gözlerinden silinmiyor
    D#m G#m
    Aşk her defasında bak bulunuyor
    D#m B
    Bırakırım zamanı öyle biraz da
    F# B
    Sen olmadan da yine geçer nasılsa
    F# C#m
    Hatırla bunları sakın unutma
    C#m
    Diyordun ama o zaman gülüyordun
    C#m F# D#m
    Yanımdaydın canımdaydın şimdi nasıl geçer bu ömür...


    D#m G#m D#m
    Susma söyle nasıl yaşar böyle insan
    G#m
    Susma konuş hadi anlat büyük insan
    B F#
    Söyle bir aşk mı çare olurdu zaman mı
    G#m D#m
    Böyle kaldırıp atardık ya sevdayı
    G#m D#m
    Susma söyle nasıl yapar bunu insan
    G#m
    Susma nasıldı anlat hadi ayrılırsam
    B F#
    Söyle hayat mı çare bulurdu kendin mi
    G#m D#m
    Böyle büyük aşklar böyle mi biterdi


    E-------------------------- // -------------------------- //
    B-------------------------- // -------------------------- //
    G-------------------------- // -------------------------- //
    D---8---6-8-6h8h6---6------ // ---8---6-8-6h8h6---6------ //
    A-6---9-----------9---9-7-6 // -6---9-----------9---9-7-6 //
    E-------------------------- // -------------------------- //

    E-------------------------- // -------------------------- //
    B-------------------------- // -------------------------- //
    G--8----6-8-6----6--------- // -------------------------- //
    D----9---------9---9-8-6--- // -9-8-9-8h9h8-6---6-------- //
    A-6------------------------ // ---------------9---9-7-9-6 //
    E-------------------------- // -------------------------- //

    G#m D#m G#m
    At silip at aşkları bir yere fırlat
    D#m G#m
    Bitti say ki derdini kaldır öyle at...
    G#m D#m G#m
    Sor ne olur sen benden ayrılırsan
    D#m G#m
    Ne olur düşümde bir ömrü durdursan
    D#m G#m
    Aşk her defasında bende ararsan
    D#m B
    Bırakırım kendimi öyle biraz da
    F# B
    Sen olmadan da ben yaşarım nasılsa
    F# C#m
    Hatırla bunları sakın unutma
    C#m
    Diyordun ama o zaman gülüyordun
    F# D#m
    Yanımdaydın canımdaydın şimdi nasıl geçer bu ömür


    D#m G#m D#m
    Susma söyle nasıl yaşar böyle insan
    G#m
    Susma konuş hadi anlat büyük insan
    B F#
    Söyle bir aşk mı çare olurdu zaman mı
    G#m D#m
    Böyle kaldırıp atardık ya sevdayı
    D#m G#m D#m
    Susma söyle nasıl yapar bunu insan
    G#m
    Susma nasıl anlat hadi ayrılırsam
    B F#
    Söyle hayat mı çare bulurdu kendin mi
    G#m D#m
    Böyle büyük aşklar böyle mi biterdi


    E-------------------------- // -------------------------- //
    B-------------------------- // -------------------------- //
    G-------------------------- // -------------------------- //
    D---8---6-8-6h8h6---6------ // ---8---6-8-6h8h6---6------ //
    A-6---9-----------9---9-7-6 // -6---9-----------9---9-7-6 //
    E-------------------------- // -------------------------- //

    E-------------------------- // -------------------------- //
    B-------------------------- // -------------------------- //
    G--8----6-8-6----6--------- // -------------------------- //
    D----9---------9---9-8-6--- // -9-8-9-8h9h8-6---6-------- //
    A-6------------------------ // ---------------9---9-7-9-6 //
    E-------------------------- // -------------------------- //


    D#m G#m D#m
    Susma hani aşk insanı zaten bulurdu
    D#m G#m
    Susma hani yıllar aşka çare bulurdu
    B F#
    Söyle yıllar mı daha hızlı bir kurşun mu
    G#m D#m
    Böyle sensiz her gün biraz yok olsun mu


     
Gökhan Türkmen - Büyük İnsan - AKOR (versiyon 4) konusuna benzer diğer içeriklerimiz
  1. Gökhan Türkmen - Rastgele

    Gökhan Türkmen - Rastgele

    Durumlar beter, Kaçmakla sanma biter.. Bu kadar yeter, Fazla aşk beni mahveder Bu kadar sorun, Hangi cehennemde çekilir ki? Hangi akıllı sevilir ki? Benim de aslında şansım Deliyim ben sana deliyim Hangi aşık bile bile Yolunda ölür gide gele Ben denizinde bir balığım Çekinme güzelim, rastgele.. Üzülme canım olsun, İstediğin "canım" olsun Sana değer bütün dertler Bana değer geçer...
  2. Gökhan Türkmen - Günah

    Gökhan Türkmen - Günah

    Yürürüm, yalanların ardından Ölürüm, karanlığın ardından Sonsuzluk, kahrolası bir hayal Günahkar gecelerin ardından Sahtekar gecelerin ardından Bile bile göç eder inançlarım Yarım kalır dualarım Çığlıklarla gömülür hayatım Bile bile yalvarır bak ellerim Günah saçar bu gözlerim Ateşlerde yanarım af dilerim
  3. Gökhan Türkmen - Efkarlıyım

    Gökhan Türkmen - Efkarlıyım

    Efkarılıyım bu akşam bir hasretle savaşan Dertler sardı bu akşam sanki içtikçe artan Bir ben gülemiyorum neden bilemiyorum herşey bomboş yalan Bir sen çekip gittin bilsem severmiydim dostum oldu hüsran Ah yaşamıyorum çıkamam bu karanlıktan Ah deliriyorum ki sebebi yok anlarım aşktan İster hüzünlen agla ister sen de iç böyle Düşmeden anlamazsın yalnızsan sen de söyle
  4. Gökhan Türkmen - Bir Öykü

    Gökhan Türkmen - Bir Öykü

    gökhan türkmen gökhan türkmen bir öykü sözleri bir rüya rüya şarkı sözü Son zamanlarda sıklıkla dinlediğim şarkılara arasında yer alan Gökhan Türkmenin Bir Rüya adlı şarkısı, paylaşım sitelerinde de klibiyle de oldukça ilgi görüyor... sizlere tavsiyem klibini de izlemeniz.. Bir Öykü Ah bu sana ilk olmuşken ne acı ki son şarkım bu çok mu kolaydı yoksa zor mu sisli aşk mı tutku mu oldu...
  5. Gökhan Türkmen Konseri

    Gökhan Türkmen Konseri

    gökhan türkmen gökhan türkmen tokat konseri tokat konseri konser görüntüleri konserleri 2011 Gökhan Türkmen Konseri, nerededir, saati, resimleri hakkında detaylı bilgi alalım arkadaşlar. Konsere katılacak meleklere şimdiden iyi eğlenceler :) Gökhan Türkmen Mekan: G.O.P Stadyumu – Tokat Tarih: 19 Mayıs 2011 Persembe 19:00

Sayfayı Paylaş