Şebnem Ferah Tabları

*MeleK*

*MeleK*

♥Ben Aşık Olduğum Adamın Aşık Olduğu Kadınım♥
Yönetici
Şebnem Ferah Tabları
Ay Işığı
Şebnem Ferah


Em C
Ay ışığına vuruldum ben
Em C
Çok uzaklarda olsa da
Em C
Sonumuzu bile bile seviştim ben
Em C
Artık gece hiç olmasa da


Em C
Ay ışığına vuruldum ben
Em C
Başka dünyaya yansa da
Em C
Çok zor geçen günün ardından uyurken ben
Em C
Odam hep ışıksız kalmışsa da

Am
Bu ev artık yuva değil
C D Em
Bütün eşyalar üst üste terketmeden önce


Çakıl Taşları
Şebnem Ferah


Şebnem Ferah - Çakıl Taşları

Em F G F
benim çakıl taşlarım var irili ufaklı
Em F G F
kaybolduğumda yere yayıp yol yaptığım
Em F G F
çakıl taşlarım var her yerden topladığım
Em F G f
boşluğa düştüğümde oyunlar yaratıp oynadığım


Em F G F
benim bir sözlüğüm var unutulmuş bir dil
Em F G F
oysa ki içinde her şeyin anlamı gizli
Em F G F
benim bir gözlüğüm var sol camı kırıldı
Em F G F Am
taktığım zamanlarda içini gösteren adeta


Em F G F
sen hiç hiç oldun mu, birden duruldun mu?
Em F G F
bulanıkmış berrakmış her suyu içtin mi?
Em F G G
altında ağ olmadan yerden yükseldin mi?
Em F G F Em F G
tam zevkine varmışken birden yere düştün mü sen?
F Em F G
düştün mü sen?


Em F G F
benim hiç boyanmamış dört duvarım var
Em F G F
çatlaklarından sızıp içinden geçtiğim
Em F G F
benim hiç yıkılmamış duvarlarım var
Em F G F Am
dikkatle baktığımda ardını gördüğüm adeta


Em F G F
sen hiç hiç oldun mu, birden duruldun mu?
Em F G F
bulanıkmış berrakmış her suyu içtin mi?
Em F G G
altında ağ olmadan yerden yükseldin mi?
Em F G F Em F G
tam zevkine varmışken birden yere düştün mü sen?
F Em F G
düştün mü sen?


Em F G F
benim bir hikayem var sonunu yazmadığım
Em F G F
benim bir sevgilim var henüz tanışmadığım
Em F G F
benim umudum var benim umudum
Em F G F
benim umudum var benim umudum


Em F G F
sen hiç hiç oldun mu, birden duruldun mu?
Em F G F
bulanıkmış berrakmış her suyu içtin mi?
Em F G G
altında ağ olmadan yerden yükseldin mi?
Em F G F Em F G
tam zevkine varmışken birden yere düştün mü sen?
F Em F G
düştün mü sen?


Em F G F
sen hiç hiç oldun mu, birden duruldun mu?
Em F G F
bulanıkmış berrakmış her suyu içtin mi?
Em F G G
altında ağ olmadan yerden yükseldin mi?
Em F G F Em F G
tam zevkine varmışken birden yere düştün mü sen?
F Em F G
düştün mü sen?


Can Kırıkları
Şebnem Ferah


intro (Guitar x)
E---------------------------------------------------------------------7-----------------------------5-----
B--------5/6---8-----6-6/5-------6--5------------------5/6--8---------6-6/5------------------5------------
G------------------------------7--------------------7-------------------------------7-5-----------5-------
D---7---------------------------------------7------0--------------------------------------7---------------
A---0---------------------------------------0----------------------------------------------0--------------
E---------------------------------------------------------------------------------------------------------

Bu kalabalığın içinde
Yapayalnız hissetmektense
Dünyanın bir ucunda tek başımayım

Kir göstermeyen renkeleriniz
Sizin olsun korkmaktansa
Bulanıklığın tam içinde bir başımayım

Am Bb Am
Benim belkide gizli bir bildiğim var
Bb Am
Elbette ağlarım benim can kırıklarım var
Bb Am
Senin gördüğün yanağımdan süzülenler
Bb Am
Asıl içimde içinde yüzdüğüm bir deniz var


Dans Pisti
Şebnem Ferah


E|------13--15-13---12----10-12-|--13---10-13-15--13-----------|
B|------------------------------|---------------------------15-|
G|------------------------------|------------------------------|
D|------------------------------|------------------------------|
A|------------------------------|------------------------------|
E|------------------------------|------------------------------|



--13--13--13---12-13--15-13-------|--12-12--10-12-13--12---------|
------------------------------15--|------------------------------|
----------------------------------|------------------------------|
----------------------------------|------------------------------|
----------------------------------|------------------------------|
----------------------------------|------------------------------|



--13-13---13--15-13--12-10----10-12-|--13---10-13-15--13-----------|
------------------------------------|---------------------------15-|
------------------------------------|------------------------------|
------------------------------------|------------------------------|
------------------------------------|------------------------------|
------------------------------------|------------------------------|



--13--13--13---12-13--15-13-------|--12-12--10-12-13--12---------|
------------------------------15--|------------------------------|
----------------------------------|---------------------------- -|
----------------------------------|----------------------------- |
----------------------------------|------------------------------|
----------------------------------|------------------------------|


Durma
Şebnem Ferah


Şebnem Ferah - Durma

Am
Biz yollarda yalnız kaldık
Bb Gm Am
Masallarda sevgi verilmez
Am
Biz yıllarca korku dolduk
Bb Gm Am
Rüzgara yön sorduk bilinmez
Dm Eb F C F Bb
Hangi el güçlü bu ellerden yigit yürekelrden
Gm Gm
Baslasak yeniden yeniden
Am
Hayır sen hiç korkma

Yarın senin yanında
Bb Dm
Yaniden koş yollarda durma


Kalbim
Şebnem Ferah


E
Siyah beyaz bir film gibiydin herkes uyurken izlediğim
A E
Sevgilim benim çok özledim
E
Herzaman gitmek istediğim tatil yerleri gibiydin
A E
Dergi sayfalarında hiç gidemediğim
G# A
Bu bir masal başı iyi mutsuz sonlu
G# A B A
Senle ben batı doğu ama dünya yuvarlak
E A
Kalbim ellerim kadar küçük değil
E A
Kalbim ellerim kadar küçük değil
E
En çok sevdiğim şarkıydın herkesten çok sevildin
A E
Sevgilim benim çok özledim
E
Ben küçük bir kız heyecanlı oyuncaklarım tahtadandı
A E
Hepsi kırıldı yapıştırdım
G# A
Bu bir masal başı iyi mutsuz sonlu
G# A B A
Senle ben batı doğu ama dünya yuvarlak
E A
Kalbim ellerim kadar küçük değil
E A
Kalbim ellerim kadar küçük değil
E
Ben küçük bir kız heyecanlı oyuncaklarım tahtadandı
A E
Hepsi kırıldı yapıştırdım



Okyanus
Şebnem Ferah


Akort düzeni D drop


intro

D - A - G# - F - D - E - F - E

D - A - G# - F - D [C - D la tlinde] (ilk dönüş)


D - A - G# - F - D - E - F - E

D - F - D - F - [C - D la tlinde] (ikinci dönüş)



Vokal

D - D - A


Brigde

A - F E - D F - D


Nakarat

D - C - A# - C D - F – E


Okyanus
Şebnem Ferah


intro
clean
E----------------------------------------|------------------||
B-------10-----9-------------------------|---------10-----9-||
G-----7----7------7----10-------9/10-9---|-----7------7-----||
D---0--------0------8-----0--------------|---0---0-----0----||
A-0-------------------------0------------|-0----------------||
E----------------------------------------|------------------||
(------- X 3 -------) son bölüm...

ilp
(intro ile birlikte distortion)
E-------------------------------------------------------------
B-------------------------------------------------------------
G----------------------------5/7-6v---------------------------
D----6-7---------------6-7---5/7---------6-7------------------
A-5--6-7-8-5-7/8-7---5-6-7-8----------5--6-7-8-5-7/8-7--5-8-5-
E-5------8-5-7/8-7---5-----8----------5------8-5-7/8-7--5-8-5-



(Gitar X)
E--------------------------------------
B--------------------------------------
G--------------------------------------
D----6-7---------------6-7-------------
A-5--6-7-8-5-7/8-7---5-6-7-8-5-7/8-7---
E-5------8-5-7/8-7---5-----8-5-7/8-7---

(Gitar Z)
E-------------------------------------------------------------
B-------------------------------------------------------------
G-------------------------------------------------------------
D----------7-7-7---------------------7-7-7-----------7-7-7----
A-5-5--5-5-6-6-6/7-5-5--5-5--5-5-5-5-6-6-6/7-5-5-5-5-6-6-6/7--
E-5-5--5-5---------5-5--5-5--5-5-5-5---------5-5-5-5----------
Önümde agir...

***Gitar X

***Gitar Z
Iste o an biri geliyor,
Tutuyor kulagimdan,
Gözü anahtar deliginde
"Bak" diyor sadece burdan,

***Gitar X

(Gitar Y)
E-----------------------------------|---------------------------||
B-----------------------------------|---------------------------||
G-----------------------------------|---------------------------||
D-----------------------------------|---------------------------||
A-7-7-X-7-7-X-7-7--3-3-X-3-3-X-3-3--|-7-5-7-5-7-5-7-5-7-5-7-5-8-||
E-5-5-X-5-5-X-5-5--1-1-X-1-1-X-1-1--|-7-5-7-5-7-5-7-5-7-5-7-5-8-||
"Birak" diyorum......... ....bilegimi şimdi..


***Gitar Z
önümde ağır bir ......


***Gitar Y
"Bak" diyorum koca......



E-----------------------------------------------------------
B-----------------------------------------------------------
G-----------------------------------------------------------
D-7-X-X-X-X-7-X-X-X-X-7-X-X-X--7-X-X-X-X-7-X-X-X-X-7-X-X-X--
A-5-X-X-X-X-5-X-X-X-X-7-X-X-X--5-X-X-X-X-5-X-X-X-X-7-X-X-X--
E-5-X-X-X-X-5-X-X-X-X-5-X-X-X--5-X-X-X-X-5-X-X-X-X-5-X-X-X--
Bir ileri bir geri her adim bu..

E-----------------------------------------------------------
B-----------------------------------------------------------
G-----------------------------------------------------------
D-5-X-X-X-X-5-X-X-X-X-5-X-X-X--5-X-X-X-X-5-X-X-X-X-5-X-X-X--
A-3-X-X-X-X-3-X-X-X-X-3-X-X-X--3-X-X-X-X-3-X-X-X-X-5-X-X-X--
E-3-X-X-X-X-3-X-X-X-X-3-X-X-X--3-X-X-X-X-3-X-X-X-X-3-X-X-X--
kapının ardi demek..

E-----------------------------------------------------------
B-----------------------------------------------------------
G-----------------------------------------------------------
D-3-X-X-X-X-3-X-X-X-X-3-X-X-X--3-X-X-X-X-3-X-X-X-X-3-X-X-X--
A-1-X-X-X-X-1-X-X-X-X-1-X-X-X--1-X-X-X-X-1-X-X-X-X-1-X-X-X--
E-1-X-X-X-X-1-X-X-X-X-1-X-X-X--1-X-X-X-X-1-X-X-X-X-1-X-X-X--
Sonunda bogulmak olsa da Benim o sularda

E-----------------------------------------------------------
B-----------------------------------------------------------
G-----------------------------------------------------------
D-5-X-X-X-X-5-X-X-X-X-5-X-X-X--5-X-X-X-X-5-X-X-X-X-5-X-X-X--
A-3-X-X-X-X-3-X-X-X-X-3-X-X-X--3-X-X-X-X-3-X-X-X-X-5-X-X-X--
E-3-X-X-X-X-3-X-X-X-X-3-X-X-X--3-X-X-X-X-3-X-X-X-X-3-X-X-X--
yüzmem gerek

-------------------
-8v-8-9-6-8-6------
--------------5-7--
-------------------
-------------------
-------------------

Anahtar deliginden görünen
Bu küçük manzara sana yetiyorsa, yetsin
Benim o sularda yüzmem gerek.
Yüzmem gerek...


Sil Baştan
Şebnem Ferah


Şebnem Ferah - Sil Baştan

Em B7
Gucun var mi sevgilim,
Am Em
Derin sularda inci tanesi aramaya
Em B7
Cesaretin kaldiysa
Am Em
Hala benle asktan konusmaya
Em B7
Soyle canim sevgilim
Am Em
Hayat bize oyun oynuyor olabilirmi
Em B7
Yorgun gibi bir halin var
Am Em
Duylarin Karisik olabilirmi

Em B7
Sil bastan baslamak gerek bazen )
Em B7
Hayati sifirlamak )
Am Em 2 defa
Sil bastan sevmek gerek bazen )
B7 Em
Herseyi Unutmak )

Em B7
Sanki bugun son gunmus gibi
Am Em
Dolu dolu yasamak istiyorum ben
Em B7
Her ne cikarsa yoluma
Am Em
Selam verip yurumek istiyorum ben

Em B7
Sil bastan baslamak gerek bazen )
Em B7
Hayati sifirlamak )
Am Em 2 defa
Sil bastan sevmek gerek bazen )
B7 Em
Herseyi Unutmak )
 

Benzer İçerikler

*MeleK*
Cevaplar
0
Görüntüleme
969
*MeleK*
*MeleK*
Cevaplar
0
Görüntüleme
2K
*MeleK*
kaprisli
Cevaplar
0
Görüntüleme
708
kaprisli
kaprisli
..αѕi_мєℓєk..
Cevaplar
0
Görüntüleme
2K
..αѕi_мєℓєk..
..αѕi_мєℓєk..
Üst