Tab Okumak

*MeleK*

♥Ben Aşık Olduğum Adamın Aşık Olduğu Kadınım♥
Yönetici
Tab Okumak
--------3---------- --------0----------
--------3---------- --------0----------
--------4---------- --------1----------
--------5---------- --------2----------
--------5---------- --------2----------
--------3---------- --------0----------

Mesela bu bir akor. Sana hangi telde hangi zamanda hangi perdeye basman gerektiğini gösteriyor. Dikkat edeceğin şey tam ters olaraktır. Yani en alt çizgi senin en üst telindir. Ona göre ayarlayacaksın. Burda tüm sesler aynı hizada demekki tek seferde çıkacak ses. Parmaklarının konumlandırmasını sen nasıl rahat ediyosan ona göre ayarla. Sıfır ( 0 ) olarak geçen yerler boş tellerdir. Yani hiç bir perde olmadan telin serbest hali.

---8----5-------------------------------------------------------------------------------------
--------------8-----5-------------------------------------------------------------------------
---------------------------7------5-----7-----5----------------------------------------------
-------------------------------------------------------7------5-------------------------------
--------------------------------------------------------------------7------5------------------
-----------------------------------------------------------------------------------3------5---

Burda da bi sıra var. Sırası ile en alt telden başlayıp yukarı doğru giden bi riff, kalıp neyse işte. Bir ses bitiminden sonra diğer ses başlıyor. Bunların tabiki bi ritmleri vardır ama bu egzersiz olduğu için ritm kavramı sana ait. Yavaş yada hızlı farketmez.

peki hangi tel nedir?

e(ince mi) -----------
B(si) -----------
G(sol) -----------
D(re) -----------
A(la) -----------
E(mi) -----------

***Tablar klavye üzerindeki pozisyona göre değil düşey olarak tersten yazılırlar.

e --0--------
B --1--------
G --2--------
D --2-------- Örneğin bu görmüş olduğun Am akorudur
A --0--------
E -----------

E - kalın mi
A - la
D - re
G - sol
B - si
E - ince mi


Birde 4lük, 8lik, 16lık, 32lik şeklinde terimler göreceksin ileride bunlarda şöyle oluyor,

4lük demek bir metronomda 1 vuruş
8lik 2 vuruş
16lık 4 vuruş
32lik 8 vuruş
 
Üst