1. kaprisli

    kaprisli Yeni Üye Üye

    Kayıt:
    13 Kasım 2008
    Mesajlar:
    4.310
    Beğenilen Mesajlar:
    19
    Ödül Puanları:
    0

    Teoman - Hergün Aradıysam - TAB (versiyon 1)

    Konu, 'Akor-Tab-Nota' kısmında kaprisli tarafından paylaşıldı.

    intro: E|----------| ) B|----------| )
    G|----------| )
    D|-4--7--9--| ) x4
    A|-4--7--9--| )
    E|-2--5--7--| )
    E|--------------------------|
    B|--------------------------|
    G|-5--1---------------------|
    D|-5--2--4-4---4-4---4------|
    A|-3--2--4-4---4-4---4------|
    E|-------2-2-0-2-2-0-2------|

    HERGÜN ARADIYSAM
    F#m E
    Gizli değil ki bu okunuyor yüzümden
    B F#m F#m E F#m F#m E F#m
    Sonsuz bulamayışı kalbimin
    E|---------------------|
    B|---------------------|
    G|---------------------|
    D|--4-4---4-4---4------|
    A|--4-4---4-4---4------|
    E|--2-2-0-2-2-0-2------|
    F#m E A B
    Bir daha aramaz tanırım onu
    A F#m F#m E F#m F#m E Bm Cm
    Kaçamağı beynimin
    E|--------------------------------------------------------|
    B|--------------------------------------------------------|
    G|-----------------4--6--7--------------------------------|
    D|--4-4---4-4---4--4--6--7--------2--------7-----2--4-----|
    A|--4-4---4-4---4--2--4--5--------2--------7-----2--4-----|
    E|--2-2-0-2-2-0-2-----------------0--------5-----0--2-----|
    Tutunuversem çalısına sevginin
    E|--------------------------------|
    B|--------------------------------|
    G|-7------------------------------|
    D|-7-------4---4--7--9------------|
    A|-5-------4---4--7--9------------|
    E|---------2---2--5--7------------|
    Uçurumlarda.
    E|---------------------| )
    B|---------------------| )
    G|---------------------| )
    D|------------4--7--9--| ) <==TEKRAR
    A|------------4--7--9--| )
    E|------------2--5--7--| )

    Hergün aradıysam,
    TEKRAR
    Hiç bulamadıysam,
    E|-------------------------------------------|
    B|-------------------------------------------|
    G|------------7------------------------------|
    D|------------7-------2--------------4--7--9-|
    A|------------5-------2--------------4--7--9-|
    E|--------------------0--------------2--5--7-|
    Hep çocuk kaldıysam Büyürmüyüm sonunda?

    F#m A
    Tek sen değilsin ki boşluğa uzanan
    B F#m F#m E F#m F#m E F#m
    Korkak sevgisiz kalbimiz.
    E|---------------------|
    B|---------------------|
    G|---------------------|
    D|--4-4---4-4---4------|
    A|--4-4---4-4---4------|
    E|--2-2-0-2-2-0-2------|
    F#m E A B
    Bir daha aramaz tanırım onu
    A F#m F#m E F#m F#m E F#m
    Yaralıyız hepimiz.

     
Teoman - Hergün Aradıysam - TAB (versiyon 1) konusuna benzer diğer içeriklerimiz
  1. Teoman - Mavi - AKOR (versiyon 1)

    Teoman - Mavi - AKOR (versiyon 1)

    G Em C D Kaptan bu kadar hızlı gitme hava güzel deniz güzel yelken yeter bize G Em C D Akıntı burnu önümüzde mandalina kokuları sahilden dolsun içimize G Em C D Mutluyum diyorum kendime sağım solum önüm arkam her yer G...
  2. Teoman - Onyedi - AKOR (versiyon 1)

    Teoman - Onyedi - AKOR (versiyon 1)

    onyedi akor teoman onyedi akor on yedi tab --------------------------(solo)-------------------------- E-------------0-10-10----0-5-3-1-0-1-1--0-0--1------------ B---1-3—1-0-1----------1------------3----1-----3-1-0-1---- G--2------------------2--------------------------------2-- D-2------------------------------------------------------- C D Boşver beni...
  3. Teoman - Yollar - AKOR (versiyon 1)

    Teoman - Yollar - AKOR (versiyon 1)

    /--------------------(solo)-------------------- EI----2--------------2--I----2-----------------I BI----------------------I----------------------I GI-4-----4-3-4343-4-----I-4-----4-3-4343-------I DI----------------------I----------------4-----I (3kez) EI------I-------2--------I BI------I----------------I GI-4----I-3--4-----------I DI------I----------------I...
  4. Teoman - Dudaklarımda - AKOR (versiyon 1)

    Teoman - Dudaklarımda - AKOR (versiyon 1)

    Intro:G-Cx2 G C Hadi başlat beni rahatlat,doya doya yaşat hayatımı G D Umutlandır benimle ol,paylaş sende aşkımı C G Benimsin tam benimsin,hiç bitmeyen aşkımsın D Dudaklarımda... C G D G Yaşat beni eğlencenle,buz gibi tenin elimde her zaman her...
  5. Teoman - Gönülçelen - AKOR (versiyon 1)

    Teoman - Gönülçelen - AKOR (versiyon 1)

    Dm Gm Kiriklarini aldirdim kalbimin C F C/E Dm7 C Zirhimi cikarttim astim portmantoya Dm Gm Guzel vucutlar bos suratlar C F C/E Dm7 C Benimse yenmis tirnaklarim titrek ellerim var Dm Gm Evet dedi ben de seni aldattim C F C/E Dm7 C Bir...

Sayfayı Paylaş