gebe
  1. kaprisli

    kaprisli Yeni Üye Üye

    Kayıt:
    13 Kasım 2008
    Mesajlar:
    4.648
    Beğenilen Mesajlar:
    19
    Ödül Puanları:
    0

    Teoman - Kupa Kızı Ve Sinek Valesi - TAB (versiyon 1)

    Konu, 'Akor-Tab-Nota' kısmında kaprisli tarafından paylaşıldı.

    kupa kızı ve sinek valesi tab teoman kupa kızı sinek valesi tab solo teoman ve G-----------------------------------3-----------------------3---I
    D---------------3--5--5--3--5--3--5------5--5--3--5--3--5-------IBASS TAB
    A---------------------------------------------------------------I
    E---------------------------------------------------------------I

    G-------------------------------------------------------------I
    D-------------------------------------------------------------I
    A-------------6---6--5--6--5--6--3--5--5--3--5--3--5---6------I
    E-------------------------------------------------------------I


    G-----------------------------------3-----------------------3----I D---------------3--5--5--3--5--3--5------5--5--3--5--3--5--------I
    A----------------------------------------------------------------I
    E----------------------------------------------------------------I

    G-------------------------------------------------------------I
    D-------------------------------------------------------------I
    A--------------6---6--5--6--5--6--3--5--5--3--5--3--5-----3---I
    E----------------------------------------------------6--------I

    GİRİŞ............................................................................
    G#m F#
    Bir iskambil falında çıkmıştık bir birimize
    G#m F#
    O güzel kupa kızıydı sinek valesiydim bense
    G#m F#
    Geceyarısı o perşembe rastladım köprü üstünde
    G#m F#
    Ağlama dedim o ağladı trabzanlardan indiğinde
    B F#
    Saçlarınmı ıslak yoksa ıslakmı yaşamak dedim
    G#m F#
    Senin için rüzgarda hep yağmurmu var
    B F#
    Gözlerinmi daldı yoksa sıkıldınmı sorulardan
    G#m F#
    Hiç geçmezmi gözlerinden bu sonbahar
    G#m F#
    Bir kar tanesi ol kon dilimin ucuna
    E F#
    Bir kar tanesi eri ağzımda

    G---------------8--7--5------------------I
    D----5--6--5-----------------------------I
    A----------------------------------------I
    E----------------------------------------I
    SOLO..................................................

    G#m F#
    Sırılsıklamdı soyundu vücuduma dokundu
    G#m F#
    Biraz pürüzlü tenimde yaşam hücrelerimi buldu
    G#m F#
    Mutluydum o uyudu sarıldım sayıklarken
    G#m F#
    Tanımadığım o adları yanımda çırılçıplak

    B F#
    Saçlarınmı ıslak yoksa ıslakmı yaşamak dedim
    G#m F#
    Senin için rüzgarda hep yağmurmu var
    B F#
    Gözlerinmi daldı yoksa sıkıldınmı sorulardan
    G#m F#
    Hiç geçmezmi gözlerinden bu sonbahar
    G#m F#
    Bir kar tanesi ol kon dilimin ucuna
    E F#
    Bir kar tanesi eri ağzımda

    G---------------8--7--5------------------I
    D----5--6--5-----------------------------I
    A----------------------------------------I
    E----------------------------------------I
    SOLO..................................................

    G#m F#
    Rüyamda gururluydum biliyordum diyordum
    G#m F#
    İnanmak lazımmış meğer iskambil fallarına
    G#m F#
    Uyandım baka kaldım hayali bir parmağın
    G#m F#
    Bıraktığı yazıyla pencere camının buğusuna


    G-----------------------------------3-----------------------3---I
    D---------------3--5--5--3--5--3--5------5--5--3--5--3--5-------I
    A---------------------------------------------------------------I
    E---------------------------------------------------------------I

    G-------------------------------------------------------------I
    D-------------------------------------------------------------I
    A-------------6---6--5--6--5--6--3--5--5--3--5--3--5---6------I
    E-------------------------------------------------------------I

    G-----------------------------------3-----------------------3----I
    D---------------3--5--5--3--5--3--5------5--5--3--5--3--5--------I
    A----------------------------------------------------------------I
    E----------------------------------------------------------------I

    G-------------------------------------------------------------I
    D-------------------------------------------------------------I
    A--------------6---6--5--6--5--6--3--5--5--3--5--3--5-----3---I
    E------------------------------------------------------6------I

     
Teoman - Kupa Kızı Ve Sinek Valesi - TAB (versiyon 1) konusuna benzer diğer içeriklerimiz
  1. Teoman - Motosikletli Kız - AKOR (versiyon 1)

    Teoman - Motosikletli Kız - AKOR (versiyon 1)

    motosikletli kız akor Am Motosikletli kız günlerdir G F Seni bulmak için buralardayım E Sen yoksun Am Motosikletli kız çatladımı G F Dudağın avucun yüzün yüreğin E Üşüyormusun Am Kırık bir kalp elinde kala kala kala kala Am G Bir karamal tadıysa dünya senin ağzında F E Gittikçe azalan her nefes...
  2. Teoman - Yağmur - AKOR (versiyon 1)

    Teoman - Yağmur - AKOR (versiyon 1)

    Intro : Am E Dm Am E||--0-------0--------0-----|--1------0------0---|| B||--1-------0--------0-----|--3------1------1---|| G||--2-------1--------1-----|--2------2------2---|| D||--2-------2--------2-----|--0------2------2---|| A||--0----------------------|---------0------0---|| X 2 E||-------------------------|--------------------|| Verse...
  3. Teoman - Ayna - AKOR (versiyon 1)

    Teoman - Ayna - AKOR (versiyon 1)

    Am Dm Am G E--0-----0------1-3-1-0----- I -0-----0-----------------0-- B----1-----3-1---3------3--- I ---1-----3-1-0-----3-1-3---- G------2------------------2- I -----2---------0------------ D--------2-2-2--0-0-0-0----- I -----------------0---------- A--0------------------------ I -0-----0-----------------0-- E--------------------------- I -------------3-------------- Am Dm...
  4. Teoman - Gemiler - AKOR (versiyon 1)

    Teoman - Gemiler - AKOR (versiyon 1)

    teoman gemiler akor sen geçerken sahilden sessizce akor ben geçerken sahilden sessizce sen teoman C#m F#m Bir an için çıksam hayatından, B C#m Yanık tenli omuzunda F#m Haykırsam maziden uzaklarda, B G# Şu anda yanında A B Deniz rüzgara...
  5. Teoman - Kıskançlık - AKOR (versiyon 1)

    Teoman - Kıskançlık - AKOR (versiyon 1)

    C G# C Bir gün daha bitti önümde G# C Günler gelir geçer ve antibiyotikler G# C Kimim ben, bugün ne günlerden? G# Kırk derece yüksek ateş Am Ve kıskançlık G Bu zayıflık anında F Am Bir aşkın komasında G F C Kıskançlık...

Sayfayı Paylaş