1. kaprisli

    kaprisli Yeni Üye Üye

    Kayıt:
    13 Kasım 2008
    Mesajlar:
    4.310
    Beğenilen Mesajlar:
    19
    Ödül Puanları:
    0

    Teoman - Oğul - TAB (versiyon 1)

    Konu, 'Akor-Tab-Nota' kısmında kaprisli tarafından paylaşıldı.

    e|------------------------------------------------------| B|------------------------------------------------------| G|--2-2-4-0 0 0 ----------------------------------------|
    D|--------------4--5------------------------------------| 2x
    A|------------------------------------------------------|
    E|------------------------------------------------------|

    e|------------------------------------------------------|
    B|------------------------------------------------------|
    G|-------7--5-5 5-5/4/5-5-------------------------------| 2x
    D|-5/9 9------------------------------------------------|
    A|------------------------------------------------------|
    E|------------------------------------------------------|


    YADA 2. Kısım için

    e|------------------------------------------------------|
    B|------------------------------------------------------|
    G|-------7--5-5 5 ---5----------------------------------| 2x
    D|-5/9 9----------9 ------------------------------------|
    A|------------------------------------------------------|
    E|------------------------------------------------------|


    Nakarat kısmındaki arkadan gelen yankılı elektro gitar in da tam çalınışı



    e|------------------------------------------------------|
    B|----7 7 7 p 5-----------------------------------------|
    G|------------------------------------------------------|
    D|------------------------------------------------------|
    A|------------------------------------------------------|
    E|------------------------------------------------------|

     
Teoman - Oğul - TAB (versiyon 1) konusuna benzer diğer içeriklerimiz
  1. Teoman - Mavi - AKOR (versiyon 1)

    Teoman - Mavi - AKOR (versiyon 1)

    G Em C D Kaptan bu kadar hızlı gitme hava güzel deniz güzel yelken yeter bize G Em C D Akıntı burnu önümüzde mandalina kokuları sahilden dolsun içimize G Em C D Mutluyum diyorum kendime sağım solum önüm arkam her yer G...
  2. Teoman - Onyedi - AKOR (versiyon 1)

    Teoman - Onyedi - AKOR (versiyon 1)

    onyedi akor teoman onyedi akor on yedi tab --------------------------(solo)-------------------------- E-------------0-10-10----0-5-3-1-0-1-1--0-0--1------------ B---1-3—1-0-1----------1------------3----1-----3-1-0-1---- G--2------------------2--------------------------------2-- D-2------------------------------------------------------- C D Boşver beni...
  3. Teoman - Yollar - AKOR (versiyon 1)

    Teoman - Yollar - AKOR (versiyon 1)

    /--------------------(solo)-------------------- EI----2--------------2--I----2-----------------I BI----------------------I----------------------I GI-4-----4-3-4343-4-----I-4-----4-3-4343-------I DI----------------------I----------------4-----I (3kez) EI------I-------2--------I BI------I----------------I GI-4----I-3--4-----------I DI------I----------------I...
  4. Teoman - Dudaklarımda - AKOR (versiyon 1)

    Teoman - Dudaklarımda - AKOR (versiyon 1)

    Intro:G-Cx2 G C Hadi başlat beni rahatlat,doya doya yaşat hayatımı G D Umutlandır benimle ol,paylaş sende aşkımı C G Benimsin tam benimsin,hiç bitmeyen aşkımsın D Dudaklarımda... C G D G Yaşat beni eğlencenle,buz gibi tenin elimde her zaman her...
  5. Teoman - Gönülçelen - AKOR (versiyon 1)

    Teoman - Gönülçelen - AKOR (versiyon 1)

    Dm Gm Kiriklarini aldirdim kalbimin C F C/E Dm7 C Zirhimi cikarttim astim portmantoya Dm Gm Guzel vucutlar bos suratlar C F C/E Dm7 C Benimse yenmis tirnaklarim titrek ellerim var Dm Gm Evet dedi ben de seni aldattim C F C/E Dm7 C Bir...

Sayfayı Paylaş