1. kaprisli

    kaprisli Yeni Üye Üye

    Kayıt:
    13 Kasım 2008
    Mesajlar:
    4.310
    Beğenilen Mesajlar:
    19
    Ödül Puanları:
    0

    Teoman - Rapsodi İstanbul - TAB (versiyon 1)

    Konu, 'Akor-Tab-Nota' kısmında kaprisli tarafından paylaşıldı.

    rapsodi istanbul tab teoman rapsodi istanbul tab e|-------1----------------------------3-5-6-----------------1------
    B|-3-1-3---3---1---1---1-2-1------3-1-------3-3-1---1---1-3--------
    G|---------------3---3----------------------------3---3------------
    D|-----------------------------------------------------------------
    A|-----------------------------------------------------------------
    E|-----------------------------------------------------------------



    e|-8-10-11-10-8---------------8------------------------------------
    B|--------------11-10-8-10-11---11-10-11---------------------------
    G|---------------------------------------7-7-----------------------
    D|-----------------------------------------------------------------
    A|-----------------------------------------------------------------
    E|-----------------------------------------------------------------



    e|-------------------8-10----8----8--------------------------------
    B|-7-8-10-8-10-11---------11---10---11-10-8-7---6-7-8--------------
    G|--------------------------------------------7--------------------
    D|-----------------------------------------------------------------
    A|-----------------------------------------------------------------
    E|-----------------------------------------------------------------
     
Teoman - Rapsodi İstanbul - TAB (versiyon 1) konusuna benzer diğer içeriklerimiz
  1. Teoman - Onyedi - AKOR (versiyon 1)

    Teoman - Onyedi - AKOR (versiyon 1)

    onyedi akor teoman onyedi akor on yedi tab --------------------------(solo)-------------------------- E-------------0-10-10----0-5-3-1-0-1-1--0-0--1------------ B---1-3—1-0-1----------1------------3----1-----3-1-0-1---- G--2------------------2--------------------------------2-- D-2------------------------------------------------------- C D Boşver beni...
  2. Teoman - Yollar - AKOR (versiyon 1)

    Teoman - Yollar - AKOR (versiyon 1)

    /--------------------(solo)-------------------- EI----2--------------2--I----2-----------------I BI----------------------I----------------------I GI-4-----4-3-4343-4-----I-4-----4-3-4343-------I DI----------------------I----------------4-----I (3kez) EI------I-------2--------I BI------I----------------I GI-4----I-3--4-----------I DI------I----------------I...
  3. Teoman - Dudaklarımda - AKOR (versiyon 1)

    Teoman - Dudaklarımda - AKOR (versiyon 1)

    Intro:G-Cx2 G C Hadi başlat beni rahatlat,doya doya yaşat hayatımı G D Umutlandır benimle ol,paylaş sende aşkımı C G Benimsin tam benimsin,hiç bitmeyen aşkımsın D Dudaklarımda... C G D G Yaşat beni eğlencenle,buz gibi tenin elimde her zaman her...
  4. Teoman - Gönülçelen - AKOR (versiyon 1)

    Teoman - Gönülçelen - AKOR (versiyon 1)

    Dm Gm Kiriklarini aldirdim kalbimin C F C/E Dm7 C Zirhimi cikarttim astim portmantoya Dm Gm Guzel vucutlar bos suratlar C F C/E Dm7 C Benimse yenmis tirnaklarim titrek ellerim var Dm Gm Evet dedi ben de seni aldattim C F C/E Dm7 C Bir...
  5. Teoman - İstanbulda Sonbahar - AKOR (versiyon 1)

    Teoman - İstanbulda Sonbahar - AKOR (versiyon 1)

    Am ----------0-----------0----- -------1-----1-----1-------- ----2-----------2----------- ---------------------------- --0------------------------- ---------------------------- Am Dm Am Mevsim rüzgarlari ne zaman eserse o zaman hatirlarim G Am Çocukluk rüyalarim, seytan uçurtmalarim Am Dm...

Sayfayı Paylaş