1. kaprisli

    kaprisli Yeni Üye Üye

    Kayıt:
    13 Kasım 2008
    Mesajlar:
    4.310
    Beğenilen Mesajlar:
    19
    Ödül Puanları:
    0

    Teoman - Resimdeki Gözyaşları - TAB (versiyon 1)

    Konu, 'Akor-Tab-Nota' kısmında kaprisli tarafından paylaşıldı.

    Intro E--13-12-13-12-13-12-13------13-12-13-12-13-12-13-15---| B------------------------15----------------------------|
    G------------------------------------------------------|
    D------------------------------------------------------|
    A------------------------------------------------------|
    E------------------------------------------------------|

    E------------------------------------------------------|
    B--656565-6-656565--8--868686--5--5555--6-8-10-----55--|
    G----------------------------------------------7777----|
    D------------------------------------------------------|
    A------------------------------------------------------|
    E------------------------------------------------------|

    E------------------------------------------------------|
    B-------5--6---8-8-8-6-5--6-----5-6--8--8--6-5---656565|
    G-7--7----------------------7--7---------------7-------|
    D------------------------------------------------------|
    A------------------------------------------------------|
    E------------------------------------------------------|


    E------------------------------------------------------|
    B-8---5--6-5-6----55555--6-8-10--6-5-6--5555-----656565|
    G---------------7----------------------------7-7-------|
    D------------------------------------------------------|
    A------------------------------------------------------|
    E------------------------------------------------------|

    Solo
    E------------------------------------------------------|
    B-6-5-6-5-6-5---6-5-6---5-6--8--868686-5-555568-10-----|
    G-------------7-------7--------------------------------|
    D------------------------------------------------------|
    A------------------------------------------------------|
    E------------------------------------------------------|

    E------------------------------------------------------|
    B--6-5------5-6--8--8-65--65------56--88-865-65-----56-|
    G------7--7------------------7--7---------------7-7----|
    D------------------------------------------------------|
    A------------------------------------------------------|
    E------------------------------------------------------|

    E------------------------------------------------------|
    B-8-8--865---------------------------------------------|
    G------------------------------------------------------|
    D------------------------------------------------------|
    A------------------------------------------------------|
    E------------------------------------------------------|

     
Teoman - Resimdeki Gözyaşları - TAB (versiyon 1) konusuna benzer diğer içeriklerimiz
  1. Teoman - Mavi - AKOR (versiyon 1)

    Teoman - Mavi - AKOR (versiyon 1)

    G Em C D Kaptan bu kadar hızlı gitme hava güzel deniz güzel yelken yeter bize G Em C D Akıntı burnu önümüzde mandalina kokuları sahilden dolsun içimize G Em C D Mutluyum diyorum kendime sağım solum önüm arkam her yer G...
  2. Teoman - Onyedi - AKOR (versiyon 1)

    Teoman - Onyedi - AKOR (versiyon 1)

    onyedi akor teoman onyedi akor on yedi tab --------------------------(solo)-------------------------- E-------------0-10-10----0-5-3-1-0-1-1--0-0--1------------ B---1-3—1-0-1----------1------------3----1-----3-1-0-1---- G--2------------------2--------------------------------2-- D-2------------------------------------------------------- C D Boşver beni...
  3. Teoman - Yollar - AKOR (versiyon 1)

    Teoman - Yollar - AKOR (versiyon 1)

    /--------------------(solo)-------------------- EI----2--------------2--I----2-----------------I BI----------------------I----------------------I GI-4-----4-3-4343-4-----I-4-----4-3-4343-------I DI----------------------I----------------4-----I (3kez) EI------I-------2--------I BI------I----------------I GI-4----I-3--4-----------I DI------I----------------I...
  4. Teoman - Dudaklarımda - AKOR (versiyon 1)

    Teoman - Dudaklarımda - AKOR (versiyon 1)

    Intro:G-Cx2 G C Hadi başlat beni rahatlat,doya doya yaşat hayatımı G D Umutlandır benimle ol,paylaş sende aşkımı C G Benimsin tam benimsin,hiç bitmeyen aşkımsın D Dudaklarımda... C G D G Yaşat beni eğlencenle,buz gibi tenin elimde her zaman her...
  5. Teoman - Gönülçelen - AKOR (versiyon 1)

    Teoman - Gönülçelen - AKOR (versiyon 1)

    Dm Gm Kiriklarini aldirdim kalbimin C F C/E Dm7 C Zirhimi cikarttim astim portmantoya Dm Gm Guzel vucutlar bos suratlar C F C/E Dm7 C Benimse yenmis tirnaklarim titrek ellerim var Dm Gm Evet dedi ben de seni aldattim C F C/E Dm7 C Bir...

Sayfayı Paylaş