1. kaprisli

    kaprisli Yeni Üye Üye

    Kayıt:
    13 Kasım 2008
    Mesajlar:
    4.310
    Beğenilen Mesajlar:
    19
    Ödül Puanları:
    0

    Teoman - Rüzgar Gülü - TAB (versiyon 1) melişlerim

    Konu, 'Akor-Tab-Nota' kısmında kaprisli tarafından paylaşıldı.

    rüzgar gülü tab teoman rüzgar gülü tab E--------------1-0----------------------| B---------1-----------------------------|
    G---2---2---3------2-0------------------| x2
    D----------------------3--2h3p2h3--2~---|
    A---------------------------------------|
    E---------------------------------------|

    E---------------------|--------------------------
    B----------8/11--10---|------------------8-11~~-|
    G---------------------|-------------------------|
    D---------------------|-------------------------|
    A---------------------|-------------------------|
    E---------------------|-------------------------|
    ..konuşmaya başladım.Dedim benim kadar yalnızsan,


    E--------------------|-----------------------|
    B--------------10~~--|------------------10~~-|
    G--------------------|---------------12------|
    D--------------------|-----------------------|
    A--------------------|-----------------------|
    E--------------------|-----------------------|
    tek gecelik bir aşksan,omuzlarına abanan bir..


    E-------------------------------------------|
    B---------------------6-5-6-5-8-5---6-5-6~--|
    D-------------------------------------------|
    G-------------------------------------------|
    A-------------------------------------------|
    E-------------------------------------------|
    Hiç ölümü düşündün mü?

    SOLO (x2)
    E--------------------------------------------------|
    B--------------------------------------------------|
    G---10p9-10--------9h10-9-7---9-7-9--------7-9-10--|
    D-----------7~----------------------5~-------------|
    A--------------------------------------------------|
    E--------------------------------------------------|

    E-----------------------------|----------------------|
    B-8/13-11-10-8--10h11-10-8-10-|-10/11-8h10-10/11-8h10|
    G-----------------------------|----------------------|
    D-----------------------------|----------------------|
    A-----------------------------|----------------------|
    E-----------------------------|----------------------|

    / = Slide up
    ~ = Titreştir
    h = Hammer-on
    p = Pull-off

     
  2. SadmiN

    SadmiN ♥ Evli Mutlu Çocuklu ♥ Yetkili Kişi

    Kayıt:
    29 Mayıs 2007
    Mesajlar:
    14.821
    Beğenilen Mesajlar:
    1.089
    Ödül Puanları:
    113
    Aynı konudan birden fazla aynı başlıkla olmasından dolayı başlık güncellemesi yapılmıştır.
     
Teoman - Rüzgar Gülü - TAB (versiyon 1) melişlerim konusuna benzer diğer içeriklerimiz
  1. Teoman - Mavi - AKOR (versiyon 1)

    Teoman - Mavi - AKOR (versiyon 1)

    G Em C D Kaptan bu kadar hızlı gitme hava güzel deniz güzel yelken yeter bize G Em C D Akıntı burnu önümüzde mandalina kokuları sahilden dolsun içimize G Em C D Mutluyum diyorum kendime sağım solum önüm arkam her yer G...
  2. Teoman - Onyedi - AKOR (versiyon 1)

    Teoman - Onyedi - AKOR (versiyon 1)

    onyedi akor teoman onyedi akor on yedi tab --------------------------(solo)-------------------------- E-------------0-10-10----0-5-3-1-0-1-1--0-0--1------------ B---1-3—1-0-1----------1------------3----1-----3-1-0-1---- G--2------------------2--------------------------------2-- D-2------------------------------------------------------- C D Boşver beni...
  3. Teoman - Yollar - AKOR (versiyon 1)

    Teoman - Yollar - AKOR (versiyon 1)

    /--------------------(solo)-------------------- EI----2--------------2--I----2-----------------I BI----------------------I----------------------I GI-4-----4-3-4343-4-----I-4-----4-3-4343-------I DI----------------------I----------------4-----I (3kez) EI------I-------2--------I BI------I----------------I GI-4----I-3--4-----------I DI------I----------------I...
  4. Teoman - Dudaklarımda - AKOR (versiyon 1)

    Teoman - Dudaklarımda - AKOR (versiyon 1)

    Intro:G-Cx2 G C Hadi başlat beni rahatlat,doya doya yaşat hayatımı G D Umutlandır benimle ol,paylaş sende aşkımı C G Benimsin tam benimsin,hiç bitmeyen aşkımsın D Dudaklarımda... C G D G Yaşat beni eğlencenle,buz gibi tenin elimde her zaman her...
  5. Teoman - Gönülçelen - AKOR (versiyon 1)

    Teoman - Gönülçelen - AKOR (versiyon 1)

    Dm Gm Kiriklarini aldirdim kalbimin C F C/E Dm7 C Zirhimi cikarttim astim portmantoya Dm Gm Guzel vucutlar bos suratlar C F C/E Dm7 C Benimse yenmis tirnaklarim titrek ellerim var Dm Gm Evet dedi ben de seni aldattim C F C/E Dm7 C Bir...

Sayfayı Paylaş