1. kaprisli

    kaprisli Yeni Üye Üye

    Kayıt:
    13 Kasım 2008
    Mesajlar:
    4.310
    Beğenilen Mesajlar:
    19
    Ödül Puanları:
    0

    Yalın - Meleklerin Sözü Var - TAB (versiyon 2)

    Konu, 'Akor-Tab-Nota' kısmında kaprisli tarafından paylaşıldı.

    yalın tab yalın solo tabları meleklerin sözü var solo meleklerin sözü var tab
    VERSE
    G-|-----------------------------------------
    D-|---------|---------|----------|---------|
    A-|-3-------|0--------|----------|3--------|
    E-|---------|---------|1----3----|---------|




    G-|------------------------------------------
    D-|---------|--------|----------|------------
    A-|-3-------|0-------|----------|3---3-------
    E-|---------|--------|1----3----|-----3------



    (B1) Güneş batmış bana ne..


    G-|----------------|---------------
    D-|----------------|---------------
    A-|-3--33---3--33-2|0-00---0--00---
    E-|-------3--------|-----0-------0-



    |--------------|--------------
    |0-00----------|--------------
    |-----0------2-|3--33---3-33--
    |-------3-33---|------3------3



    (B2) Kalpler yanmış..


    G-|-----------------------------------
    D-|-----------------------------------
    A-|-------------2-3--33-2-0--00-------
    E-|-1-11--3-3-5-----------------0-1-11




    -------------------------
    ---------------5-3-2-0---
    -------------------------
    --3-33---3-33-3----------



    CHORUS
    G-|-------|--------|-------|-------
    D-|-------|--------|-------|-------
    A-|3--33--|--------|0--00--|-------
    E |-------|0--00-3-|-------|0--00--



    meleklerin sözü var x2


    |*---------------------------
    |*---------------------------
    |*------3-2-0---------3-33---
    |*1--13-------3-1--13------3-



    G-|---------------------------------
    D-|---------------------------------
    A-|-3--33---3-33-20--00---0-00------
    E-|-------3-------------0-------01--



    ------------------------------|
    ----------------55-2----------|
    ------------2-3-------3--33---|
    -11-1--3-33-----------------3-|

    Let ring (B1)


     
Yalın - Meleklerin Sözü Var - TAB (versiyon 2) konusuna benzer diğer içeriklerimiz
  1. Yalın - Cumhuriyet - AKOR (versiyon 2)

    Yalın - Cumhuriyet - AKOR (versiyon 2)

    Am Dm Kalbimin orta yerinde bu nasıl bir Cumhuriyet G C F Seninki nasıl bir hakimiyet ben anlamadım Dm E Sustum sustum sonunda, dayanamadım Am Dm G Aşk mısın dert misin yoksa canına susamak mı benimki C F Hayatı kovalamak mı dörtnala bu evde Dm...
  2. Yalın - Gelme - AKOR (versiyon 2)

    Yalın - Gelme - AKOR (versiyon 2)

    Dm A Duydum ki çok pişmanmışsın Gm Dm Gecen göz yaşıyla dolmuş ) Gm Dm ) Sana deli gibi aşıkken tükettiğin bu kalbe yan ) 1st verse Bb A ) Seni çok sevmiştim inan...
  3. Yalın - Küçücüğüm - AKOR (versiyon 2)

    Yalın - Küçücüğüm - AKOR (versiyon 2)

    küçücüğüm akor yalın küçücüğüm akor herşeyim kücücügüm hiç özlemediğim kadar özlüyorum Bm Em Hiç özlemediğim kadar özlüyorum bu aralar seni G Bm niye bilmiyorum ama ben sadece senle mutluyum Bm Em G ah şu gönül gözünden görmek dedikleri var ya Bm seni...
  4. Yalın - Kalamadım - AKOR (versiyon 2)

    Yalın - Kalamadım - AKOR (versiyon 2)

    yalın kalamadım akor kalamadım akor yalın bir yol bulup ben akamadım Cm# İçim sızlıyor doğru A Ama sana git demekten başka yol mu var B E Onların doğrularıyla büyürken A G# İçine hayat çekmek değil kolay Cm# Sesim çıkmıyor doğru A Ama bağırsam kime ne faydası var B E Bedelli...
  5. Yalın - Üzülme - AKOR (versiyon 2)

    Yalın - Üzülme - AKOR (versiyon 2)

    İNTRO: Am F G Am Em Herkesin haytla bir kaygısı var Am Em Barışmıyor bir türlü yıldızları G F Am Hayaller güney gerçekler kuzeye doğdu Am Em Dünyayı hep buzlu gördün sen Am Em Denizleri her zaman dalgalı G F Am Yağmuru sonsuz güneşi...

Sayfayı Paylaş