gebe
  1. kaprisli

    kaprisli Yeni Üye Üye

    Kayıt:
    13 Kasım 2008
    Mesajlar:
    4.648
    Beğenilen Mesajlar:
    19
    Ödül Puanları:
    0

    Grup 84 - Affet - TAB (versiyon 3)

    Konu, 'Akor-Tab-Nota' kısmında kaprisli tarafından paylaşıldı.

    Intro
    E|---------------------------------------------
    B|---------------------------------------------
    G|---------------------------------------------
    D|-12/14-14/8-8-8-8-8-8-8-8-7-5-5-5-5----------
    A|-12/14-14/8-8-8-8-8-8-8-8-7-5-5-5-5----------
    E|-10/12-12/6-6-6-6-6-6-6-6-5-3-3-3-3----------

    E|---------------------------------------------
    B|---------------------------------------------
    G|---------------------------------------------
    D|-8/12-12/7-7-7-7-7-7-7-7-5-3-3-3-3-----------
    A|-8/12-12/7-7-7-7-7-7-7-7-5-3-3-3-3-----------
    E|-6/10-10/5-5-5-5-5-5-5-5-3-1-1-1-1-----------

    E|---------------------------------------------
    B|---------------------------------------------
    G|---------------------------------------------
    D|-12/14-14/8-8-8-8-8-8-8-8-7-5-5-5-5----------
    A|-12/14-14/8-8-8-8-8-8-8-8-7-5-5-5-5----------
    E|-10/12-12/6-6-6-6-6-6-6-6-5-3-3-3-3----------

    E|---------------------------------------------
    B|---------------------------------------------
    G|---------------------------------------------
    D|-8/12-12/7-7-7-7-7-7-7-7-5-3-3-3-3-3-3-3-3---
    A|-8/12-12/7-7-7-7-7-7-7-7-5-3-3-3-3-3-3-3-3---
    E|-6/10-10/5-5-5-5-5-5-5-5-3-1-1-1-1-1-1-1-1---

    of yine kapalı tüm kapılar
    E|-----------------------------------0------0---
    B|---3--5-6-5-3-2-----2-3-2--------3------3-----
    G|-2--------------3---------3-0-2-------2-------
    D|----------------------------------------------
    A|----------------------------------------------
    E|----------------------------------------------
    sor beni en uzak meyhaneye
    E|------0------0--------------------------------
    B|----3------3-----3--5-6-5-3-2-----2-3-2-------
    G|-2-------2-----2--------------3---------3-0---
    D|----------------------------------------------
    A|----------------------------------------------
    E|----------------------------------------------

    E|------0------0------0------0-----------------
    B|----3------3------3------3-------------------
    G|-2-------2-----2-------2---------------------
    D|---------------------------------------------
    A|---------------------------------------------
    E|---------------------------------------------

    sor da al cevabı varmıymış
    hatam var elbet ama asla
    E|----------------------------------------------
    B|----------------------------------------------
    G|.---------------------------------------------
    D|.--8--8--X-8-X-8-X-X-5--X-5-X-5-X--7--X-7-X-7-
    A|---8--8--X-8-X-8-X-X-5--X-5-X-5-X--7--X-7-X-7-
    E|---6--6--X-6-X-6-X-X-3--X-3-X-3-X--5--X-5-X-5-


    başkası sahibi olsun yüreğimin
    büyük aşk ezdirmez kendini
    E|---------------------------------------------
    B|---------------------------------------------
    G|---------------------------------------------
    D|--x-x-7--x-7-x-7-8--8--x-8-x-8-x-x-5--x-5-x--
    A|--x-x-7--x-7-x-7-8--8--x-8-x-8-x-x-5--x-5-x--
    E|--x-x-5--x-5-x-5-6--6--x-6-x-8-x-x-3--x-3-x--

    E|-----------------------------------|---------
    B|-----------------------------------|---------
    G|----------------------------------.|---------
    D|-5-x--7--x-7-x-7-x-7-7--x-7-x-7---.|---------
    A|-5-x--7--x-7-x-7-x-7-7--x-7-x-7----|---------
    E|-3-x--5--x-5-x-5-x-x-5--x-5-x-5----|---------

    ezilmeeeeeeeeeeeeeez (sadece ezilmez kısmı böyle, bir kere çaldıktan
    E|--------------------------------------------- sonra ezdirmez kendini den
    B|--------------------------------------------- sonra bu yapılacak)
    G|---------------------------------------------
    D|-----7-7-7-7-7-7-7-7-8-8-8-------------------
    A|-----7-7-7-7-7-7-7-7-8-8-8-------------------
    E|-----5-5-5-5-5-5-5-5-6-6-6-------------------

    affeeet ne olur bu saf deli yüreği
    E|---------------------------------------------
    B|---------------------------------------------
    G|--7-7-7-7-7-7-7-7---------------------------- 1. gitar
    D|--7-7-7-7-7-7-7-7-8-8-8-8-8-8-8-8------------
    A|--5-5-5-5-5-5-5-5-8-8-8-8-8-8-8-8------------
    E|------------------6-6-6-6-6-6-6-6------------
    |
    |
    E|---------------------------------------------
    B|--3---5-6-5-3-2-----2-3-2--------------------
    G|----------------3---------3-0---------------- 2. gitar
    D|---------------------------------------------
    A|---------------------------------------------
    E|---------------------------------------------

    E|-------------------------------------------------
    B|-------------------------------------------------
    G|-7-7-7-77-9-9-9-99-10-10-10-1010-12-12-12-1212---
    D|-7-7-7-77-9-9-9-99-10-10-10-1010-12-12-12-1212---
    A|-5-5-5-55-7-7-7-77-8--8--8--8-8--10-10-10-1010---
    E|-------------------------------------------------
    |
    |
    E|-------------------------------------------------
    B|-------------------------------------------------
    G|-2-2-2-22-4-4-4-44-5-5-5-55-7-7-7-77-------------
    D|-------------------------------------------------
    A|-------------------------------------------------
    E|-------------------------------------------------

    ağlaaaa ağla ki sula kurak bedenimi
    E|---------------------------------------------
    B|---------------------------------------------
    G|--7-7-7-7-7-7-7-7---------------------------- 1. gitar
    D|--7-7-7-7-7-7-7-7-8-8-8-8-8-8-8-8------------
    A|--5-5-5-5-5-5-5-5-8-8-8-8-8-8-8-8------------
    E|------------------6-6-6-6-6-6-6-6------------
    |
    |
    E|---------------------------------------------
    B|--3---5-6-5-3-2-----2-3-2--------------------
    G|----------------3---------3-0---------------- 2. gitar
    D|---------------------------------------------
    A|---------------------------------------------
    E|---------------------------------------------

    E|-------------------------------------------------
    B|-------------------------------------------------
    G|-7-7-7-77-9-9-9-99-10-10-10-1010-12-12-12-1212---
    D|-7-7-7-77-9-9-9-99-10-10-10-1010-12-12-12-1212---
    A|-5-5-5-55-7-7-7-77-8--8--8--8-8--10-10-10-1010---
    E|-------------------------------------------------
    |
    |
    E|-------------------------------------------------
    B|-------------------------------------------------
    G|-2-2-2-22-4-4-4-44-5-5-5-55-7-7-7-77-------------
    D|-------------------------------------------------
    A|-------------------------------------------------
    E|-------------------------------------------------
    E|-------------------------------------------------

    olmadım ki senden başkasıyla asla
    E|------------------------------------------------
    B|------------------------------------------------
    G|-----7-7-7-9-9-10-12-7-7-7-9-9-10-12------------
    D|-----7-7-7-9-9-10-12-7-7-7-9-9-10-12------------
    A|-----5-5-5-7-7-8--10-5-5-5-7-7-8--10------------
    E|------------------//--------------//------------
    bir dize söz için dört tane yapılıyor,
    E|------------------------------------------------ sözler biraz yavaş gidiyor
    B|------------------------------------------------
    G|-----7-7-7-9-9-10-12-7-7-7-9-9-10-12------------
    D|-----7-7-7-9-9-10-12-7-7-7-9-9-10-12------------
    A|-----5-5-5-7-7-8--10-5-5-5-7-7-8--10------------
    E|------------------//--------------//------------

    kastın mı var söyle bu canaaaaaaa
    E|------------------------------------------------
    B|------------------------------------------------
    G|-----7-7-7-9-9-10-12-7-7-7-9-9-10-12------------
    D|-----7-7-7-9-9-10-12-7-7-7-9-9-10-12------------
    A|-----5-5-5-7-7-8--10-5-5-5-7-7-8--10------------
    E|------------------//--------------//------------


    E|------------------------------------------------
    B|------------------------------------------------
    G|-----7-7-7-9-9-10-12-7-7-7-9-9-10-12------------
    D|-----7-7-7-9-9-10-12-7-7-7-9-9-10-12------------
    A|-----5-5-5-7-7-8--10-5-5-5-7-7-8--10------------
    E|------------------//--------------//------------


    affeeet ne olur bu saf deli yüreği
    E|---------------------------------------------
    B|---------------------------------------------
    G|--7-7-7-7-7-7-7-7---------------------------- 1. gitar
    D|--7-7-7-7-7-7-7-7-8-8-8-8-8-8-8-8------------
    A|--5-5-5-5-5-5-5-5-8-8-8-8-8-8-8-8------------
    E|------------------6-6-6-6-6-6-6-6------------
    |
    |
    E|---------------------------------------------
    B|--3---5-6-5-3-2-----2-3-2--------------------
    G|----------------3---------3-0---------------- 2. gitar
    D|---------------------------------------------
    A|---------------------------------------------
    E|---------------------------------------------

    E|-------------------------------------------------
    B|-------------------------------------------------
    G|-7-7-7-77-9-9-9-99-10-10-10-1010-12-12-12-1212---
    D|-7-7-7-77-9-9-9-99-10-10-10-1010-12-12-12-1212---
    A|-5-5-5-55-7-7-7-77-8--8--8--8-8--10-10-10-1010---
    E|-------------------------------------------------
    |
    |
    E|-------------------------------------------------
    B|-------------------------------------------------
    G|-2-2-2-22-4-4-4-44-5-5-5-55-7-7-7-77-------------
    D|-------------------------------------------------
    A|-------------------------------------------------
    E|-------------------------------------------------

    ağlaaaa ağla ki sula kurak bedenimi
    E|---------------------------------------------
    B|---------------------------------------------
    G|--7-7-7-7-7-7-7-7---------------------------- 1. gitar
    D|--7-7-7-7-7-7-7-7-8-8-8-8-8-8-8-8------------
    A|--5-5-5-5-5-5-5-5-8-8-8-8-8-8-8-8------------
    E|------------------6-6-6-6-6-6-6-6------------
    |
    |
    E|---------------------------------------------
    B|--3---5-6-5-3-2-----2-3-2--------------------
    G|----------------3---------3-0---------------- 2. gitar
    D|---------------------------------------------
    A|---------------------------------------------
    E|---------------------------------------------

    E|-------------------------------------------------
    B|-------------------------------------------------
    G|-7-7-7-77-9-9-9-99-10-10-10-1010-12-12-12-1212---
    D|-7-7-7-77-9-9-9-99-10-10-10-1010-12-12-12-1212---
    A|-5-5-5-55-7-7-7-77-8--8--8--8-8--10-10-10-1010---
    E|-------------------------------------------------
    |
    |
    E|-------------------------------------------------
    B|-------------------------------------------------
    G|-2-2-2-22-4-4-4-44-5-5-5-55-7-7-7-77-------------
    D|-------------------------------------------------
    A|-------------------------------------------------
    E|-------------------------------------------------
    E|-------------------------------------------------

    o o o ooo o o o ooo ooo oo ooooooo
    E|------------------------------------------|
    B|------------------------------------------|
    G|.--9-9-9-99-7-7-7-77-5-5-5-55-3-3-3-33---.| kaç dere ooo çektiğini saymadım
    D|.--9-9-9-99-7-7-7-77-5-5-5-55-3-3-3-33---.|
    A|---7-7-7-77-5-5-5-55-3-3-3-33-1-1-1-11----|
    E|------------------------------------------|

    olmadın mı kalamadın mı yanımda - yanımdaaa
    sensiz bir hiçmişim ben aslında - aslında
    hadi gel gel kurtar acımdan
    sıcaklığın hep benimle
    E|---------------------------------------------|
    B|---------------------------------------------|
    G|.-------------------------------------------.|
    D|.-----8--8----5-x5--7-x-7---7-7-7-7-x-7-----.|
    A|------8--8----5-x5--7-x-7---7-7-7-7-x-7------|
    E|------6--6----3-x3--5-x-5---5-5-5-5-x-5------|

    yanımdaaaaaaaaaaaaaaaaaaaaaaaaaaaaaa
    E|-------------------------------------------
    B|-------------------------------------------
    G|-------------------------------------------
    D|------7-7-7-7-7-7-7-7-8-8-8-8-8-8-8-8------
    A|------7-7-7-7-7-7-7-7-8-8-8-8-8-8-8-8------
    E|------5-5-5-5-5-5-5-5-6-6-6-6-6-6-6-6------

    affeeet ne olur bu saf deli yüreği
    E|---------------------------------------------
    B|---------------------------------------------
    G|--7-7-7-7-7-7-7-7---------------------------- 1. gitar
    D|--7-7-7-7-7-7-7-7-8-8-8-8-8-8-8-8------------
    A|--5-5-5-5-5-5-5-5-8-8-8-8-8-8-8-8------------
    E|------------------6-6-6-6-6-6-6-6------------
    |
    |
    E|---------------------------------------------
    B|--3---5-6-5-3-2-----2-3-2--------------------
    G|----------------3---------3-0---------------- 2. gitar
    D|---------------------------------------------
    A|---------------------------------------------
    E|---------------------------------------------

    E|-------------------------------------------------
    B|-------------------------------------------------
    G|-7-7-7-77-9-9-9-99-10-10-10-1010-12-12-12-1212---
    D|-7-7-7-77-9-9-9-99-10-10-10-1010-12-12-12-1212---
    A|-5-5-5-55-7-7-7-77-8--8--8--8-8--10-10-10-1010---
    E|-------------------------------------------------
    |
    |
    E|-------------------------------------------------
    B|-------------------------------------------------
    G|-2-2-2-22-4-4-4-44-5-5-5-55-7-7-7-77-------------
    D|-------------------------------------------------
    A|-------------------------------------------------
    E|-------------------------------------------------

    ağlaaaa ağla ki sula kurak bedenimi
    E|---------------------------------------------
    B|---------------------------------------------
    G|--7-7-7-7-7-7-7-7---------------------------- 1. gitar
    D|--7-7-7-7-7-7-7-7-8-8-8-8-8-8-8-8------------
    A|--5-5-5-5-5-5-5-5-8-8-8-8-8-8-8-8------------
    E|------------------6-6-6-6-6-6-6-6------------
    |
    |
    E|---------------------------------------------
    B|--3---5-6-5-3-2-----2-3-2--------------------
    G|----------------3---------3-0---------------- 2. gitar
    D|---------------------------------------------
    A|---------------------------------------------
    E|---------------------------------------------

    E|-------------------------------------------------
    B|-------------------------------------------------
    G|-7-7-7-77-9-9-9-99-10-10-10-1010-12-12-12-1212---
    D|-7-7-7-77-9-9-9-99-10-10-10-1010-12-12-12-1212---
    A|-5-5-5-55-7-7-7-77-8--8--8--8-8--10-10-10-1010---
    E|-------------------------------------------------
    |
    |
    E|-------------------------------------------------
    B|-------------------------------------------------
    G|-2-2-2-22-4-4-4-44-5-5-5-55-7-7-7-77-------------
    D|-------------------------------------------------
    A|-------------------------------------------------
    E|-------------------------------------------------
    E|-------------------------------------------------

    olmadım ki senden başkasıyla asla
    E|------------------------------------------------
    B|------------------------------------------------
    G|-----7-7-7-9-9-10-12-7-7-7-9-9-10-12------------
    D|-----7-7-7-9-9-10-12-7-7-7-9-9-10-12------------
    A|-----5-5-5-7-7-8--10-5-5-5-7-7-8--10------------
    E|------------------//--------------//------------
    bir dize söz için dört tane yapılıyor,
    E|------------------------------------------------ sözler biraz yavaş gidiyor
    B|------------------------------------------------
    G|-----7-7-7-9-9-10-12-7-7-7-9-9-10-12------------
    D|-----7-7-7-9-9-10-12-7-7-7-9-9-10-12------------
    A|-----5-5-5-7-7-8--10-5-5-5-7-7-8--10------------
    E|------------------//--------------//------------

    kastın mı var söyle bu canaaaaaaa
    E|------------------------------------------------
    B|------------------------------------------------
    G|-----7-7-7-9-9-10-12-7-7-7-9-9-10-12------------
    D|-----7-7-7-9-9-10-12-7-7-7-9-9-10-12------------
    A|-----5-5-5-7-7-8--10-5-5-5-7-7-8--10------------
    E|------------------//--------------//------------


    E|------------------------------------------------
    B|------------------------------------------------
    G|-----7-7-7-9-9-10-12-7-7-7-9-9-10-12------------
    D|-----7-7-7-9-9-10-12-7-7-7-9-9-10-12------------
    A|-----5-5-5-7-7-8--10-5-5-5-7-7-8--10------------
    E|------------------//--------------//------------

    affeeet ne olur bu saf deli yüreği
    E|---------------------------------------------
    B|---------------------------------------------
    G|--7------------------------------------------ 1. gitar
    D|--7-------------8----------------------------
    A|--5-------------8----------------------------
    E|----------------6----------------------------
    |
    |
    E|---------------------------------------------
    B|--3---5-6-5-3-2-----2-3-2--------------------
    G|----------------3---------3-0---------------- 2. gitar
    D|---------------------------------------------
    A|---------------------------------------------
    E|---------------------------------------------

    not: aradaki çizgilerin farkedildiğin gibi değeri var.
    88 16lık vuruş
    88
    66

    8-8 8lik vuruş ki genelde bu var
    8-8
    6-6

    8--8 4lük vuruş
    8--8
    6--6

    8---8 3lük vuruş ki bu nadirdir
    8---8
    6---6

    bundan ötesi de anlaşılıyor rahatlıkla...

    not: introdan sonraki solo çalınmış diye düşünülebilir.
    hayırrrrr... hiçbir zaman çalmadım çalmam da...
    benim çıkardığım da böyle...


    Sözler
    Off yine kapalı tüm kapılar
    Sor beni en uzak meyhaneye
    Sorda al cevabı varmıymış başkası
    Sahibi olsun yüreciğimin
    Hatam var elbet ama asla büyük aşk
    Ezdirmez kendini ezilmez

    Affet ne olur bu saf deli yüreyimi
    Ağla ağlaki sula kurak bedenimi
    Olmadımki senden başkasıyla asla
    Kastınmı var söyle bu cana

    Olmadımı kalamadınmı yanımda
    Sensiz bir hiçmişim ben aslında
    Hadi gel gel kurtar kanımda
    Sıcaklığın hep benimle yanımda


     
Grup 84 - Affet - TAB (versiyon 3) konusuna benzer diğer içeriklerimiz
  1. Grup 84 - Azap - AKOR (versiyon 3)

    Grup 84 - Azap - AKOR (versiyon 3)

    azap akor azap tab grup 84 tab grup 84 akor Gm Fm Cm aaaaaa aaaaaaa aaaaaa Cm Gm Hayat o kadar acımasızki sevgilim Bb Fm Verdigi herşeyi geri alırda sonu gelmez Cm Gm O gün gelir yüzleşirsin geçmişinle Bb Fm Sokaklar dile gelir söylemezler yanlış nerde Gm Fm Cm Hadi kurtar beni bu...
  2. Grup 84 - Dört Duvar - AKOR (versiyon 2)

    Grup 84 - Dört Duvar - AKOR (versiyon 2)

    dört duvar tab dört duvar akor 4 akor grup 84 C#m D / C#m / D / C#m …… Dararararararararam dararararararararamm dararara ra rarararam A C#m Ne olur durma git ne olur korkma git D E C#m Ne verdin ki bu güne kadar bana acıdan başka A C#m...
  3. Grup 84 - Kara Gözlüm - AKOR (versiyon 1)

    Grup 84 - Kara Gözlüm - AKOR (versiyon 1)

    grup 84 kara gözlüm akor AaaAAaAAAAaa (intro) e|------------------------------| B|------1----1-----1-----0------| G|-----2----2-----2-----2--2----| D|----2----2-----0-----0----0---| A|---0--------------------------| E|-------3-----2-----1----------| Kara Göözlüm Beni Niye Terkettin e|--------------------------------------| B|--------1---------------------0-------|...
  4. Grup 84 - Ölürüm Hasretinle - AKOR (versiyon 3)

    Grup 84 - Ölürüm Hasretinle - AKOR (versiyon 3)

    ölürüm hasretinle akor gördünmü bak akor gördün mü bak gördün mü bizden öteside varmış gördünmü bizden öteside varmış ıntro:Em-F-Em-F-Em-G-F-Em-F-Em-F-G-Am Am G F Em gördünmü bak bizden öteside varmış Am G F Em yaşananların hepsi meğer birer yalanmış ( Am G F G tekrar(kaderimde budamı vardı sevdiğimi...
  5. Grup 84 - Son Mektup - AKOR (versiyon 3)

    Grup 84 - Son Mektup - AKOR (versiyon 3)

    son mektup notaları grup 84 son mektup tab grup 84 akor notaları Am Bırakmaz yakamı hiçbir aşk G Sonunda ne oldu bize bak F Ayrılmak için çok erken dm G-F-Em G Yarım kalacak sevdalar AM Ayrılmak için çok erken G Can dayanırmı buna derken F Başımı koyduğum kucak nerde dm G-F-Em G...

Sayfayı Paylaş