gebe
  1. kaprisli

    kaprisli Yeni Üye Üye

    Kayıt:
    13 Kasım 2008
    Mesajlar:
    4.648
    Beğenilen Mesajlar:
    19
    Ödül Puanları:
    0

    Teoman - Dursun Dünya - TAB (versiyon 1)

    Konu, 'Akor-Tab-Nota' kısmında kaprisli tarafından paylaşıldı.

    dursun dünya intro ve final solo intro e--------------------------------------------------------------------
    b--------------------------------------------------------------------
    g---11--9------------------9-----------------------------------------
    d----------12----11-12-11-----12-11---9--11--12----------------------
    a--------------------------------------------------------------------
    e--------------------------------------------------------------------

    4 defa çalınıcak
    e------------------------------------9-10-----------------------
    b---12------12-12-12-12-12-12-12-12-------12--------------------
    g---------------------------------------------------------------
    d---------------------------------------------------------------
    a---------------------------------------------------------------
    b---------------------------------------------------------------


    final solo

    e--------------------------------------------------------------------------
    b---------------------------------------10-----10-12-10--------------------
    g-11-9-11-12-11-11-9-11-12-11-9-11----------12----------------12---------7-
    d--------------------------------------------------------11----------------
    a-------------------------------------------------------------------7------
    e--------------------------------------------------------------------------


    e----7---7-9-7---7-----7-9-7----7-----7--------------------------------14---------
    b------7------------7--------------7------14-12-14-15-14---14-12-14/15-------------
    g--------------------------------------------------------------------------12/11/9-
    d---------------------------------------------------------------------------------
    a--------------------------------------------------------------------------------
    e-------------------------------------------------------------------------------



    e-15------15--14--12--------------15---14---12--------------------------------15-
    b--------------------15-14----12---------------15-14---12----12----16--15-12------
    g---------------------------------------------------------------13----------------
    d---------------------------------------------------------------------------------
    a---------------------------------------------------------------------------------
    e--------------------------------------------------------------------------------

     
Teoman - Dursun Dünya - TAB (versiyon 1) konusuna benzer diğer içeriklerimiz
  1. Teoman - Dünya - AKOR (versiyon 1)

    Teoman - Dünya - AKOR (versiyon 1)

    Em D C Herkes gibi Em D C Olmayan hayaller peşinde Em D C Yalnızım Em D C Kelimeler acıtır canımızı Em D C Bilmeden Em D C El yordamıyla yaşarken B Dinle artık duymuyoruz C D Yalama hayaller sonunda Em D C Dünya dünya X2 Em D C B A B Dünya...
  2. Teoman - Yağmur - AKOR (versiyon 1)

    Teoman - Yağmur - AKOR (versiyon 1)

    Intro : Am E Dm Am E||--0-------0--------0-----|--1------0------0---|| B||--1-------0--------0-----|--3------1------1---|| G||--2-------1--------1-----|--2------2------2---|| D||--2-------2--------2-----|--0------2------2---|| A||--0----------------------|---------0------0---|| X 2 E||-------------------------|--------------------|| Verse...
  3. Teoman - Ayna - AKOR (versiyon 1)

    Teoman - Ayna - AKOR (versiyon 1)

    Am Dm Am G E--0-----0------1-3-1-0----- I -0-----0-----------------0-- B----1-----3-1---3------3--- I ---1-----3-1-0-----3-1-3---- G------2------------------2- I -----2---------0------------ D--------2-2-2--0-0-0-0----- I -----------------0---------- A--0------------------------ I -0-----0-----------------0-- E--------------------------- I -------------3-------------- Am Dm...
  4. Teoman - Gemiler - AKOR (versiyon 1)

    Teoman - Gemiler - AKOR (versiyon 1)

    teoman gemiler akor sen geçerken sahilden sessizce akor ben geçerken sahilden sessizce sen teoman C#m F#m Bir an için çıksam hayatından, B C#m Yanık tenli omuzunda F#m Haykırsam maziden uzaklarda, B G# Şu anda yanında A B Deniz rüzgara...
  5. Teoman - Kıskançlık - AKOR (versiyon 1)

    Teoman - Kıskançlık - AKOR (versiyon 1)

    C G# C Bir gün daha bitti önümde G# C Günler gelir geçer ve antibiyotikler G# C Kimim ben, bugün ne günlerden? G# Kırk derece yüksek ateş Am Ve kıskançlık G Bu zayıflık anında F Am Bir aşkın komasında G F C Kıskançlık...

Sayfayı Paylaş