gebe
  1. kaprisli

    kaprisli Yeni Üye Üye

    Kayıt:
    13 Kasım 2008
    Mesajlar:
    4.648
    Beğenilen Mesajlar:
    19
    Ödül Puanları:
    0

    Gökhan Türkmen - Büyük İnsan - AKOR (versiyon 2)

    Konu, 'Akor-Tab-Nota' kısmında kaprisli tarafından paylaşıldı.

    INTRO (Bm-C-Bm-C-G-D-C-Am-Bm)
    E- -------------------- // ----------------- //
    B- -------------------- // ----------------- //
    G- -------------------- // ----------------- //
    D- --9---7-9-7----7---- // --9----7-9-7----7 //
    A- 7--10-------10--10-8 // 7---10-------10-- //
    E- -------------------- // ----------------- //

    E- --------------------- / -------------------------- /
    B- --------------------- / -------------------------- /
    G- --9----7-9-7----7---- / -------------------------- /
    D- ----10-------10--10-9 / 10-9-10-9-7----7---------- /
    A- 7-------------------- / ------------10---10-8-10-7 /
    E- --------------------- / -------------------------- /



    Em D Em
    At savur at sevdayı bir yere fırlat
    D Em
    Bitti sayıp acıyı kaldır öyle at...
    Em D Em
    Sor herkese sor acılar unutuluyor
    D Em
    Ağlayınca gözlerinden silinmiyor
    D Em
    Aşk her defasında bak bulunuyor
    D G
    Bırakırım zamanı öyle biraz da
    D G
    Sen olmadan da yine geçer nasılsa
    D Am
    Hatırla bunları sakın unutma
    D
    Diyordun ama o zaman gülüyordun
    C Am D B
    Yanımdaydın canımdaydın şimdi nasıl geçer bu ömür


    Bm C
    Susma söyle nasıl yaşar böyle insan
    Bm C
    Susma konuş hadi anlat büyük insan
    G D
    Söyle bir aşk mı çare olurdu zaman mı
    Am Bm
    Böyle kaldırıp atardık ya sevdayı
    Bm C
    Susma söyle nasıl yapar bunu insan
    Bm C
    Susma nasıldı anlat hadi ayrılırsam
    G D
    Söyle hayat mı çare bulurdu kendin mi
    Am Bm
    Böyle büyük aşklar böyle mi biterdi



    E- -------------------- // ----------------- //
    B- -------------------- // ----------------- //
    G- -------------------- // ----------------- //
    D- --9---7-9-7----7---- // --9----7-9-7----7 //
    A- 7--10-------10--10-8 // 7---10-------10-- //
    E- -------------------- // ----------------- //

    E- --------------------- / -------------------------- /
    B- --------------------- / -------------------------- /
    G- --9----7-9-7----7---- / -------------------------- /
    D- ----10-------10--10-9 / 10-9-10-9-7----7---------- /
    A- 7-------------------- / ------------10---10-8-10-7 /
    E- --------------------- / -------------------------- /




    Em D Em
    At silip at aşkları bir yere fırlat
    D Em
    Bitti say ki derdini kaldır öyle att...
    Em D Em
    Sor ne olur sor sen benden ayrılırsan
    D Em
    Ne olur düşümde bir ömrü durdursan
    D Em
    Aşk her defasında bende ararsan
    D G
    Bırakırım kendimi öyle biraz da
    D G
    Sen olmadan da ben yaşarım nasılsa
    D Am
    Hatırla bunları sakın unutma
    D
    Diyordun ama o zaman gülüyordun
    C Am D B
    Yanımdaydın canımdaydın şimdi nasıl geçer bu ömür


    Bm C
    Susma söyle nasıl yaşar böyle insan
    Bm C
    Susma konuş hadi anlat büyük insan
    G D
    Söyle bir aşk mı çare olurdu zaman mı
    Am Bm
    Böyle kaldırıp atardık ya sevdayı
    Bm C
    Susma söyle nasıl yapar bunu insan
    Bm C
    Susma nasıldı anlat hadi ayrılırsam
    G D
    Söyle hayat mı çare bulurdu kendin mi
    Am Bm
    Böyle büyük aşklar böyle mi biterdi


    E- -------------------- // ----------------- //
    B- -------------------- // ----------------- //
    G- -------------------- // ----------------- //
    D- --9---7-9-7----7---- // --9----7-9-7----7 //
    A- 7--10-------10--10-8 // 7---10-------10-- //
    E- -------------------- // ----------------- //

    E- --------------------- / -------------------------- /
    B- --------------------- / -------------------------- /
    G- --9----7-9-7----7---- / -------------------------- /
    D- ----10-------10--10-9 / 10-9-10-9-7----7---------- /
    A- 7-------------------- / ------------10---10-8-10-7 /
    E- --------------------- / -------------------------- /


     
Gökhan Türkmen - Büyük İnsan - AKOR (versiyon 2) konusuna benzer diğer içeriklerimiz
  1. Gökhan Türkmen - Yorgun

    Gökhan Türkmen - Yorgun

    Bir gece bitti düşüm aniden Aniden sahiden bir sahilden Bir gece daha bitti ömrümden Ömrümden gönlümden her günümden Senmiydin ben artık yokum diyen Dermiydim böylesine hiç sen Sevmiştin hani çok'ta mutluydun Umutluydun hani sen bu sevgiden Sevgini bir başka sanırdım Sanırdım sarıldım yanıldım Bu rüya hiç bitmez sanırdım Sanırdım yanıldım kırıldım Yalanmış tüm gerçek bildiğim Bir...
  2. Gökhan Türkmen - Efkarlıyım

    Gökhan Türkmen - Efkarlıyım

    Efkarılıyım bu akşam bir hasretle savaşan Dertler sardı bu akşam sanki içtikçe artan Bir ben gülemiyorum neden bilemiyorum herşey bomboş yalan Bir sen çekip gittin bilsem severmiydim dostum oldu hüsran Ah yaşamıyorum çıkamam bu karanlıktan Ah deliriyorum ki sebebi yok anlarım aşktan İster hüzünlen agla ister sen de iç böyle Düşmeden anlamazsın yalnızsan sen de söyle
  3. Gökhan Türkmen - Bahar Gözlum

    Gökhan Türkmen - Bahar Gözlum

    yazın açan güller bilir Hasret çeken şu gönlümü Sensiz geçen günler bilir Ne acılar çektiğimi Gözlerin bir yeşil bahçe Sensiz olmak bir işkence Dayanamam sen gidince Ölürüm ben bahar gözlüm Gökte uçan kuşlar gibi, Esip giden rüzgar gibi, Buzul Dagından çığ gibi, Sana geldim bahar gözlüm Sana yandım bir dal gibi, Sana soldum bir gül gibi, Sana geldim bir yol gibi, Seninleyim bahar gözlüm...
  4. Gökhan Türkmen-Rüya

    Gökhan Türkmen-Rüya

    :18: bittim ya bu şarkıyla çook ağladım harika ya sözleri sizlerle de paylaşmak istedim.:18: Her adım anladım seni bana bağladı Adı mutluluktu ağladım Nerdesin bitmesin Buraya kadarmış sevgilim Elveda diyen senmisin Gitme dur sakın Acıyor içim sensiz Gitme sevgilim Mutlu olsanda bensiz Belki bende hata yaptım Seni sevdim tek biran pişman olmadan Çok düşündüm çok yalvardım...
  5. Gökhan Türkmen /Dayanamam

    Gökhan Türkmen /Dayanamam

    Gökhan Türkmen Hangi gün hangi dün aramadımki Sevmeye seni böyle doyamadımki Bir masal gibi geçti gitti gözlerin Gitti yalan oldu sitem doldu sözlerim Bir mucize gerek derken şu hayatıma Gözlerinle açtım gönlümü sabahlara Gönül sözüm ruhum özüm canım kanım yar Hem gecem hemde gündüzüm aşım yaşım yar Biran olsun senden uzak viran olsun hayat mayat Neye yarar sensiz hayat Ben dayanamam Canım...

Sayfayı Paylaş