gebe
  1. MaWiM

    MaWiM ♥Ben Aşık Olduğum Adamın Aşık Olduğu Kadınım♥ Yetkili Kişi

    Kayıt:
    25 Temmuz 2007
    Mesajlar:
    34.184
    Beğenilen Mesajlar:
    2.224
    Ödül Puanları:
    113

    DumaN - YaNıbaşımdaN (akor)

    Konu, 'Akor-Tab-Nota' kısmında MaWiM tarafından paylaşıldı.

    duman yanıbaşımdan akor duman yanıbaşımdan tab akor --------------------------------------------------------------------------- Her sözde burası çalınıyo --------------------------------------------------------------------------- şarkıyı dinlerseniz anlarsınız...
    ---------------------------------------------------------------0-----------
    ------0-1-------------0-1------------0-1-------------------------1---------
    ----1---3-----------1---3----------1---3----------1----------------1-------
    --3---------------3--------------3--------------3---3-1--------------1-----

    sevemedim sevemedim göremedim yanıbaşımdan heryanımdan
    ben bugünü başından geçtiğini




    Ortadaki solo


    ---------------------------------------------------------------------------
    ----------^----------------------------------------------------------------
    ----5--3--5--5--3&7--3-3--3defayapılacak--2-2-2-2h3-5---2-2-2-2h3-^--------
    -------------------------------------------------------------------5-------
    ---------------------------------------------------------------------------
    ---------------------------------------------------------------------------



    ---------------------------------------------------------------------------
    ---------------------------------------------------------------------------
    ---5-----------------------------------------------------------------------
    ---5-8 defa--5---------3----------3-x-x-3-x-x-3-x-x-3-3--------------------
    ---3---------5-8 defa--3--8 defa--3-x-x-3-x-x-3-x-x-3-3--------------------
    -------------3---------1----------1-x-x-1-x-x-1-x-x-1-1--------------------

    DEv solo
    E) -5~6~5-3-1-----1-3-------3------------------------------------------
    A) -------------------0-1-0-----0-1-3-1-0---1-3-------3-----------3----
    D) ---------------------------------------------0-1-0---0-1-3-1-0------
    G) --------------------------------------------------------------------
    B) --------------------------------------------------------------------
    e) --------------------------------------------------------------------


    E) --------------------------------------------------------------------
    A) -3-----1-1----------------------------------------------------------
    D) ---0-0---------3-3-------3-3----------------------------------------
    G) -----------0-0-----0x2-2--------------------------------------------
    B) --------------------------------------------------------------------
    e) --------------------------------------------------------------------


    E) --------------------------------------------------------------------
    A) --------------------------------------------------------------------
    D) -3------------------------------------------------------------------
    G) ---0-2-3-0---2-3-5-3-2---3-5-------5--------------------------------
    B) -----------------------------3-4-3-----3-4-6-4-3--------------------
    e) --------------------------------------------------------------------


    E) --------------------------------------------------------------------
    A) --------------------------------------------------------------------
    D) --------------------------------------------------------------------
    G) --------------------------------------------------------------------
    B) -&8-10-6-8&10------8---------8--------------------------------------
    e) ---------------8-6---8-&10-6---8&10---------------------------------


    E) --------------------------------------------------------------------
    A) --------------------------------------------------------------------
    D) --------------------------------------------------------------------
    G) --------------------------------------------------------------------
    B) ---------------6-6------------8----------8----------8---------------
    e) -10-10-5-5-6-6--------8-5x6x5----8-5x6x5----8-5x6x5----8-5x6x5------


    E) --------------------------------------------------------------------
    A) --------------------------------------------------------------------
    D) -----------------10-------------------------------------------------
    G) -'5-----------------------------------------------------------------
    B) --------------------10-8-^10^-10------------------------------------
    e) ----8-6-^8^-8------------------------15-13-17>--15-13-17>-----------


    E) -{ara geçiş}--------------------------------------------------------
    A) -{ara geçiş}--------------------------------------------------------
    D) -{ara geçiş}--------------------------------------------------------
    G) -{ara geçiş}--------------------------------------------------------
    B) -{ara geçiş}-------15-15----------13-13-----------------------------
    e) -{ara geçiş}--------15--15-...-----13-13-...------------------------


     
DumaN - YaNıbaşımdaN (akor) konusuna benzer diğer içeriklerimiz
  1. DumaN - ÖzgürLüğün ÜLkesi (akor)

    DumaN - ÖzgürLüğün ÜLkesi (akor)

    özgürlüğün ülkesi akor duman özgürlüğün ülkesi akor Giriş G| 4-4-4 -5-5-5 -6 D| 4-4-4 5-5-5 5-5-5 6-6-6 6 7 A| 2-2-2 5-5-5 3-3-3 6-6-6 4 7 E| -3-3-3 -4-4-4 -5 Devamı G| 7-7-7 -8-8-8 -9 10 D| 7-7-7 8-8-8 8-8-8 9-9-9 9 10 A| 5-5-5 8-8-8 6-6-6 9-9-9 7 8 E| -6-6-6 -7-7-7 Solo G| | D| 11-11-11-11-11 | A| -7-8 11-11-11-11-11 | E| 9-10 -9-10 -9 9 9 9 9 -| 4 Defa çalınacak
  2. DumaN - Oje (akor)

    DumaN - Oje (akor)

    duman oje akor am f e gidiyorum gözüm arkada ) am f e ) kaçamadık burdan başbaşa x2 am f e am ) hangi oje yakışmaz ki kız sana ) e am ver elini bana am f e gel yanıma gir koynumaa ) x2 am f e doyamadım dönüp bakmaya am f e nede güzel durmuş yanyana am f e am hangi oje yakışmaz ki kız sana e am ver ayağı bana am f e am f e am gel çök oynaşmaa kaykıl son defaa am f e gel yanıma gir...
  3. DumaN - MasaL (akor)

    DumaN - MasaL (akor)

    A D A Biri basmış seksene ötekisi doksan beş G A G A D Aga böyle olmaz ki koca dünya harcanmaz ki of ooof D A D A Biri arap tayfası ötekisi gavur mandası G A G A D Aga böyle olmaz ki koca millet aldanmaz ki of oof G A C Biri sağdan biri soldan asılınca G A C Biri asıya biri kasaya karışınca D A G D Evvel zaman içinde masal olduk masal olduk yine}3 D A G A D Evvel zaman içinde masal...
  4. DumaN - Manası Yok (akor)

    DumaN - Manası Yok (akor)

    Bm E Bm E e|----------------------------------------| B|-7p8-7-5-7---3p5-3-2-0---7p8-7-5-7-3'5b-| G|----------------------------------------| D|----------------------------------------| A|----------------------------------------| E|----------------------------------------| Bm E C9 A e|----------------------------------------| B|-7p8-7-5-7---3p5-3-2-0---3p5-3-2-2-0-2b-|...
  5. DumaN - İstanbuL (akor)

    DumaN - İstanbuL (akor)

    duman istanbul akor duman sarhoş tab istanbul tab guitar pro gp5 G#5 F#5 G#5 F#5 D-----666-4444-666-------4444--------666-4444-6---------66-4444-- A-----666-4444-666-------4444--------666-4444-6---------66-4444-- E-----444-2222-444-------2222--------444-2222-4---------44-2222-- Bu şehir rakıyla yaşar Bu şehir cigarayı çeker Bu şehir gündüzü yaşar Bu şehir geceyi se_ver Bu şehir adamı sö__ver...

Sayfayı Paylaş