gebe
  1. kaprisli

    kaprisli Yeni Üye Üye

    Kayıt:
    13 Kasım 2008
    Mesajlar:
    4.648
    Beğenilen Mesajlar:
    19
    Ödül Puanları:
    0

    Grup 84 - Kara Gözlüm - TAB (versiyon 3)

    Konu, 'Akor-Tab-Nota' kısmında kaprisli tarafından paylaşıldı.

    karagözlüm solo
    Sözlerden önce
    e---------------------------------
    B-1-3-5-3-5--5-3-5-3--8-7-8-5--3--
    G---------------------------------
    D---------------------------------|
    A---------------------------------|
    E---------------------------------|

    e-----------------------------------------
    B-1-3-5-3-5--5-3-5-3--8-7-8-5--3--1-3-1-3-
    G-----------------------------------------
    D-----------------------------------------|
    A-----------------------------------------|
    E-----------------------------------------|

    e---------------------------------
    B-1-3-5-3-5--5-3-5-3--8-7-8-5--3--
    G---------------------------------
    D---------------------------------|
    A---------------------------------|
    E---------------------------------|

    e---------------------------------
    B-0-1-0-1-0-3------0-1-0-3--------
    G--------------2-0---------2-2---
    D---------------------------------
    A---------------------------------
    E---------------------------------

    e---------------------------------
    B-0-1-0-1-0-3------0-1-0-3--------
    G--------------2-0---------2-2---
    D---------------------------------
    A---------------------------------
    E---------------------------------

    nakarattan sonra
    e---------------------------------
    B---------------------------------
    G---------------------------------
    D---------------------------------
    A-0-2-3-2-3---3-2-3-5-2-----------
    E---------------------------------

    e---------------------------------
    B---------------------------------
    G---------------------------------
    D---------------------------------
    A-0-2-3-2-3---3-2-3-5-2-----------
    E---------------------------------

    e---------------------------------
    B---------------------------------
    G---------------------------------
    D---------------------------------
    A-0-2-3-2-3---3-2-3-5-2--0-0------
    E---------------------------------


     
Grup 84 - Kara Gözlüm - TAB (versiyon 3) konusuna benzer diğer içeriklerimiz
  1. Grup 84 - Azap - AKOR (versiyon 3)

    Grup 84 - Azap - AKOR (versiyon 3)

    azap akor azap tab grup 84 tab grup 84 akor Gm Fm Cm aaaaaa aaaaaaa aaaaaa Cm Gm Hayat o kadar acımasızki sevgilim Bb Fm Verdigi herşeyi geri alırda sonu gelmez Cm Gm O gün gelir yüzleşirsin geçmişinle Bb Fm Sokaklar dile gelir söylemezler yanlış nerde Gm Fm Cm Hadi kurtar beni bu...
  2. Grup 84 - Dört Duvar - AKOR (versiyon 2)

    Grup 84 - Dört Duvar - AKOR (versiyon 2)

    dört duvar tab dört duvar akor 4 akor grup 84 C#m D / C#m / D / C#m …… Dararararararararam dararararararararamm dararara ra rarararam A C#m Ne olur durma git ne olur korkma git D E C#m Ne verdin ki bu güne kadar bana acıdan başka A C#m...
  3. Grup 84 - Ölürüm Hasretinle - AKOR (versiyon 3)

    Grup 84 - Ölürüm Hasretinle - AKOR (versiyon 3)

    ölürüm hasretinle akor gördünmü bak akor gördün mü bak gördün mü bizden öteside varmış gördünmü bizden öteside varmış ıntro:Em-F-Em-F-Em-G-F-Em-F-Em-F-G-Am Am G F Em gördünmü bak bizden öteside varmış Am G F Em yaşananların hepsi meğer birer yalanmış ( Am G F G tekrar(kaderimde budamı vardı sevdiğimi...
  4. Grup 84 - Son Mektup - AKOR (versiyon 3)

    Grup 84 - Son Mektup - AKOR (versiyon 3)

    son mektup notaları grup 84 son mektup tab grup 84 akor notaları Am Bırakmaz yakamı hiçbir aşk G Sonunda ne oldu bize bak F Ayrılmak için çok erken dm G-F-Em G Yarım kalacak sevdalar AM Ayrılmak için çok erken G Can dayanırmı buna derken F Başımı koyduğum kucak nerde dm G-F-Em G...
  5. Grup 84 - Son Mektup - AKOR (versiyon 4)

    Grup 84 - Son Mektup - AKOR (versiyon 4)

    Em Bırakmaz yakamı hiçbir aşk D Sonunda ne oldu bize bak c Ayrılmak için çok erken Am D C Bm D Yarım kalacak sevdalar Em Ayrılmak için çok erken D Can dayanırmı buna derken C Başımı koyduğum kucak nerde Am D C Bm D Salıp kurtul beni derde Em Bedenden koptum...

Sayfayı Paylaş